ISO-10303-21;
HEADER;
FILE_DESCRIPTION (( 'STEP AP203' ),
    '1' );
FILE_NAME ('Web Model 22848_22851.step',
    '2022-06-22T12:58:12',
    ( 'WC' ),
    ( 'Windows Central' ),
    'SwSTEP 2.0',
    'SolidWorks 2021',
    '' );
FILE_SCHEMA (( 'CONFIG_CONTROL_DESIGN' ));
ENDSEC;

DATA;
#1 = PERSON_AND_ORGANIZATION_ROLE ( 'classification_officer' ) ;
#2 = CARTESIAN_POINT ( 'NONE',  ( -10.00000000000000000, 0.000000000000000000, 0.000000000000000000 ) ) ;
#3 = VERTEX_POINT ( 'NONE', #142 ) ;
#4 = FACE_OUTER_BOUND ( 'NONE', #58, .T. ) ;
#5 = CC_DESIGN_SECURITY_CLASSIFICATION ( #98, ( #99 ) ) ;
#6 = PERSON_AND_ORGANIZATION ( #72, #165 ) ;
#7 = DIRECTION ( 'NONE',  ( -0.000000000000000000, -0.000000000000000000, -1.000000000000000000 ) ) ;
#8 = CARTESIAN_POINT ( 'NONE',  ( 0.000000000000000000, 0.000000000000000000, 0.000000000000000000 ) ) ;
#9 = APPROVAL ( #25, 'UNSPECIFIED' ) ;
#10 = APPLICATION_PROTOCOL_DEFINITION ( 'international standard', 'config_control_design', 1994, #152 ) ;
#11 = ADVANCED_FACE ( 'NONE', ( #4 ), #113, .T. ) ;
#12 = AXIS2_PLACEMENT_3D ( 'NONE', #139, #106, #61 ) ;
#13 = VERTEX_POINT ( 'NONE', #145 ) ;
#14 = APPROVAL_ROLE ( '' ) ;
#15 = ADVANCED_BREP_SHAPE_REPRESENTATION ( 'Web Model 22848_22851', ( #135, #62 ), #129 ) ;
#16 = ORIENTED_EDGE ( 'NONE', *, *, #166, .F. ) ;
#17 = AXIS2_PLACEMENT_3D ( 'NONE', #73, #87, #169 ) ;
#18 = DATE_AND_TIME ( #91, #31 ) ;
#19 = DIRECTION ( 'NONE',  ( 1.000000000000000000, 0.000000000000000000, -0.000000000000000000 ) ) ;
#20 = DIRECTION ( 'NONE',  ( 1.000000000000000000, 0.000000000000000000, 0.000000000000000000 ) ) ;
#21 = PERSON_AND_ORGANIZATION ( #72, #165 ) ;
#22 = ORIENTED_EDGE ( 'NONE', *, *, #151, .T. ) ;
#23 = DATE_TIME_ROLE ( 'classification_date' ) ;
#24 = ORIENTED_EDGE ( 'NONE', *, *, #166, .T. ) ;
#25 = APPROVAL_STATUS ( 'not_yet_approved' ) ;
#26 = CIRCLE ( 'NONE', #45, 10.00000000000000000 ) ;
#27 = EDGE_CURVE ( 'NONE', #3, #49, #86, .T. ) ;
#28 = PERSON_AND_ORGANIZATION_ROLE ( 'design_owner' ) ;
#29 = AXIS2_PLACEMENT_3D ( 'NONE', #39, #7, #90 ) ;
#30 = SHAPE_DEFINITION_REPRESENTATION ( #80, #15 ) ;
#31 = LOCAL_TIME ( 8, 58, 12.00000000000000000, #138 ) ;
#32 = CC_DESIGN_PERSON_AND_ORGANIZATION_ASSIGNMENT ( #120, #171, ( #174 ) ) ;
#33 = ORIENTED_EDGE ( 'NONE', *, *, #151, .F. ) ;
#34 = CARTESIAN_POINT ( 'NONE',  ( 0.000000000000000000, 0.000000000000000000, 1.100000000000000089 ) ) ;
#35 = APPROVAL_DATE_TIME ( #102, #126 ) ;
#36 = CYLINDRICAL_SURFACE ( 'NONE', #74, 10.00000000000000000 ) ;
#37 = CC_DESIGN_PERSON_AND_ORGANIZATION_ASSIGNMENT ( #118, #88, ( #99 ) ) ;
#38 = PERSON_AND_ORGANIZATION_ROLE ( 'design_supplier' ) ;
#39 = CARTESIAN_POINT ( 'NONE',  ( 0.000000000000000000, 0.000000000000000000, 1.100000000000000089 ) ) ;
#40 = DIRECTION ( 'NONE',  ( 0.000000000000000000, 0.000000000000000000, 1.000000000000000000 ) ) ;
#41 = MECHANICAL_CONTEXT ( 'NONE', #152, 'mechanical' ) ;
#42 = APPROVAL_STATUS ( 'not_yet_approved' ) ;
#43 = DATE_AND_TIME ( #83, #175 ) ;
#44 = LOCAL_TIME ( 8, 58, 12.00000000000000000, #156 ) ;
#45 = AXIS2_PLACEMENT_3D ( 'NONE', #34, #76, #130 ) ;
#46 = APPROVAL_ROLE ( '' ) ;
#47 = CARTESIAN_POINT ( 'NONE',  ( 0.000000000000000000, 0.000000000000000000, 1.100000000000000089 ) ) ;
#48 = CALENDAR_DATE ( 2022, 22, 6 ) ;
#49 = VERTEX_POINT ( 'NONE', #155 ) ;
#50 = DIRECTION ( 'NONE',  ( -0.000000000000000000, -0.000000000000000000, -1.000000000000000000 ) ) ;
#51 = CARTESIAN_POINT ( 'NONE',  ( 0.000000000000000000, 0.000000000000000000, 0.000000000000000000 ) ) ;
#52 =( LENGTH_UNIT ( ) NAMED_UNIT ( * ) SI_UNIT ( .MILLI., .METRE. ) );
#53 = DATE_AND_TIME ( #173, #54 ) ;
#54 = LOCAL_TIME ( 8, 58, 12.00000000000000000, #93 ) ;
#55 = ADVANCED_FACE ( 'NONE', ( #57 ), #116, .T. ) ;
#56 = CALENDAR_DATE ( 2022, 22, 6 ) ;
#57 = FACE_OUTER_BOUND ( 'NONE', #104, .T. ) ;
#58 = EDGE_LOOP ( 'NONE', ( #157, #60 ) ) ;
#59 = ORIENTED_EDGE ( 'NONE', *, *, #121, .F. ) ;
#60 = ORIENTED_EDGE ( 'NONE', *, *, #172, .T. ) ;
#61 = DIRECTION ( 'NONE',  ( 1.000000000000000000, 0.000000000000000000, 0.000000000000000000 ) ) ;
#62 = AXIS2_PLACEMENT_3D ( 'NONE', #8, #81, #66 ) ;
#63 = ORIENTED_EDGE ( 'NONE', *, *, #121, .T. ) ;
#64 = CARTESIAN_POINT ( 'NONE',  ( 10.00000000000000000, 1.224646799147353256E-15, 1.100000000000000089 ) ) ;
#65 = CC_DESIGN_PERSON_AND_ORGANIZATION_ASSIGNMENT ( #6, #1, ( #98 ) ) ;
#66 = DIRECTION ( 'NONE',  ( 1.000000000000000000, 0.000000000000000000, 0.000000000000000000 ) ) ;
#67 = DESIGN_CONTEXT ( 'detailed design', #162, 'design' ) ;
#68 = PRODUCT_RELATED_PRODUCT_CATEGORY ( 'detail', '', ( #114 ) ) ;
#69 = ORIENTED_EDGE ( 'NONE', *, *, #27, .F. ) ;
#70 =( NAMED_UNIT ( * ) PLANE_ANGLE_UNIT ( ) SI_UNIT ( $, .RADIAN. ) );
#71 = CC_DESIGN_APPROVAL ( #126, ( #99 ) ) ;
#72 = PERSON ( 'UNSPECIFIED', 'UNSPECIFIED', 'UNSPECIFIED', ('UNSPECIFIED'), ('UNSPECIFIED'), ('UNSPECIFIED') ) ;
#73 = CARTESIAN_POINT ( 'NONE',  ( 0.000000000000000000, 0.000000000000000000, 0.000000000000000000 ) ) ;
#74 = AXIS2_PLACEMENT_3D ( 'NONE', #47, #50, #105 ) ;
#75 = APPROVAL_STATUS ( 'not_yet_approved' ) ;
#76 = DIRECTION ( 'NONE',  ( 0.000000000000000000, 0.000000000000000000, 1.000000000000000000 ) ) ;
#77 = VERTEX_POINT ( 'NONE', #2 ) ;
#78 = SECURITY_CLASSIFICATION_LEVEL ( 'unclassified' ) ;
#79 = CARTESIAN_POINT ( 'NONE',  ( 0.000000000000000000, 0.000000000000000000, 1.100000000000000089 ) ) ;
#80 = PRODUCT_DEFINITION_SHAPE ( 'NONE', 'NONE',  #174 ) ;
#81 = DIRECTION ( 'NONE',  ( 0.000000000000000000, 0.000000000000000000, 1.000000000000000000 ) ) ;
#82 = PERSON_AND_ORGANIZATION ( #72, #165 ) ;
#83 = CALENDAR_DATE ( 2022, 22, 6 ) ;
#84 = ADVANCED_FACE ( 'NONE', ( #112 ), #36, .T. ) ;
#85 = CC_DESIGN_DATE_AND_TIME_ASSIGNMENT ( #18, #168, ( #174 ) ) ;
#86 = CIRCLE ( 'NONE', #12, 10.00000000000000000 ) ;
#87 = DIRECTION ( 'NONE',  ( 0.000000000000000000, 0.000000000000000000, 1.000000000000000000 ) ) ;
#88 = PERSON_AND_ORGANIZATION_ROLE ( 'creator' ) ;
#89 = LINE ( 'NONE', #64, #95 ) ;
#90 = DIRECTION ( 'NONE',  ( -1.000000000000000000, 0.000000000000000000, 0.000000000000000000 ) ) ;
#91 = CALENDAR_DATE ( 2022, 22, 6 ) ;
#92 = AXIS2_PLACEMENT_3D ( 'NONE', #79, #128, #19 ) ;
#93 = COORDINATED_UNIVERSAL_TIME_OFFSET ( 5, 0, .BEHIND. ) ;
#94 = CC_DESIGN_PERSON_AND_ORGANIZATION_ASSIGNMENT ( #21, #38, ( #99 ) ) ;
#95 = VECTOR ( 'NONE', #119, 1000.000000000000000 ) ;
#96 = CC_DESIGN_DATE_AND_TIME_ASSIGNMENT ( #111, #23, ( #98 ) ) ;
#97 = UNCERTAINTY_MEASURE_WITH_UNIT (LENGTH_MEASURE( 1.000000000000000082E-05 ), #52, 'distance_accuracy_value', 'NONE');
#98 = SECURITY_CLASSIFICATION ( '', '', #78 ) ;
#99 = PRODUCT_DEFINITION_FORMATION_WITH_SPECIFIED_SOURCE ( 'ANY', '', #114, .NOT_KNOWN. ) ;
#100 = EDGE_LOOP ( 'NONE', ( #115, #141, #24, #33 ) ) ;
#101 = LINE ( 'NONE', #159, #122 ) ;
#102 = DATE_AND_TIME ( #48, #146 ) ;
#103 = COORDINATED_UNIVERSAL_TIME_OFFSET ( 5, 0, .BEHIND. ) ;
#104 = EDGE_LOOP ( 'NONE', ( #164, #69, #22, #63 ) ) ;
#105 = DIRECTION ( 'NONE',  ( -1.000000000000000000, 0.000000000000000000, 0.000000000000000000 ) ) ;
#106 = DIRECTION ( 'NONE',  ( 0.000000000000000000, 0.000000000000000000, 1.000000000000000000 ) ) ;
#107 = EDGE_CURVE ( 'NONE', #49, #13, #89, .T. ) ;
#108 = APPROVAL_DATE_TIME ( #53, #160 ) ;
#109 = CIRCLE ( 'NONE', #137, 10.00000000000000000 ) ;
#110 = CC_DESIGN_PERSON_AND_ORGANIZATION_ASSIGNMENT ( #148, #28, ( #114 ) ) ;
#111 = DATE_AND_TIME ( #56, #44 ) ;
#112 = FACE_OUTER_BOUND ( 'NONE', #100, .T. ) ;
#113 = PLANE ( 'NONE',  #92 ) ;
#114 = PRODUCT ( 'Web Model 22848_22851', 'Web Model 22848_22851', '', ( #41 ) ) ;
#115 = ORIENTED_EDGE ( 'NONE', *, *, #172, .F. ) ;
#116 = CYLINDRICAL_SURFACE ( 'NONE', #29, 10.00000000000000000 ) ;
#117 = AXIS2_PLACEMENT_3D ( 'NONE', #51, #136, #167 ) ;
#118 = PERSON_AND_ORGANIZATION ( #72, #165 ) ;
#119 = DIRECTION ( 'NONE',  ( -0.000000000000000000, -0.000000000000000000, -1.000000000000000000 ) ) ;
#120 = PERSON_AND_ORGANIZATION ( #72, #165 ) ;
#121 = EDGE_CURVE ( 'NONE', #77, #13, #150, .T. ) ;
#122 = VECTOR ( 'NONE', #154, 1000.000000000000000 ) ;
#123 = APPROVAL_PERSON_ORGANIZATION ( #125, #126, #140 ) ;
#124 = CLOSED_SHELL ( 'NONE', ( #84, #55, #11, #132 ) ) ;
#125 = PERSON_AND_ORGANIZATION ( #72, #165 ) ;
#126 = APPROVAL ( #75, 'UNSPECIFIED' ) ;
#127 = EDGE_LOOP ( 'NONE', ( #59, #16 ) ) ;
#128 = DIRECTION ( 'NONE',  ( 0.000000000000000000, 0.000000000000000000, 1.000000000000000000 ) ) ;
#129 =( GEOMETRIC_REPRESENTATION_CONTEXT ( 3 ) GLOBAL_UNCERTAINTY_ASSIGNED_CONTEXT ( ( #97 ) ) GLOBAL_UNIT_ASSIGNED_CONTEXT ( ( #52, #70, #147 ) ) REPRESENTATION_CONTEXT ( 'NONE', 'WORKASPACE' ) );
#130 = DIRECTION ( 'NONE',  ( 1.000000000000000000, 0.000000000000000000, 0.000000000000000000 ) ) ;
#131 = APPLICATION_PROTOCOL_DEFINITION ( 'international standard', 'config_control_design', 1994, #162 ) ;
#132 = ADVANCED_FACE ( 'NONE', ( #170 ), #158, .F. ) ;
#133 = APPROVAL_PERSON_ORGANIZATION ( #82, #160, #14 ) ;
#134 = CARTESIAN_POINT ( 'NONE',  ( 0.000000000000000000, 0.000000000000000000, 0.000000000000000000 ) ) ;
#135 = MANIFOLD_SOLID_BREP ( 'Boss-Extrude1', #124 ) ;
#136 = DIRECTION ( 'NONE',  ( 0.000000000000000000, 0.000000000000000000, 1.000000000000000000 ) ) ;
#137 = AXIS2_PLACEMENT_3D ( 'NONE', #134, #40, #20 ) ;
#138 = COORDINATED_UNIVERSAL_TIME_OFFSET ( 5, 0, .BEHIND. ) ;
#139 = CARTESIAN_POINT ( 'NONE',  ( 0.000000000000000000, 0.000000000000000000, 1.100000000000000089 ) ) ;
#140 = APPROVAL_ROLE ( '' ) ;
#141 = ORIENTED_EDGE ( 'NONE', *, *, #107, .T. ) ;
#142 = CARTESIAN_POINT ( 'NONE',  ( -10.00000000000000000, 0.000000000000000000, 1.100000000000000089 ) ) ;
#143 = APPROVAL_PERSON_ORGANIZATION ( #144, #9, #46 ) ;
#144 = PERSON_AND_ORGANIZATION ( #72, #165 ) ;
#145 = CARTESIAN_POINT ( 'NONE',  ( 10.00000000000000000, 1.224646799147353256E-15, 0.000000000000000000 ) ) ;
#146 = LOCAL_TIME ( 8, 58, 12.00000000000000000, #103 ) ;
#147 =( NAMED_UNIT ( * ) SI_UNIT ( $, .STERADIAN. ) SOLID_ANGLE_UNIT ( ) );
#148 = PERSON_AND_ORGANIZATION ( #72, #165 ) ;
#149 = APPROVAL_DATE_TIME ( #43, #9 ) ;
#150 = CIRCLE ( 'NONE', #17, 10.00000000000000000 ) ;
#151 = EDGE_CURVE ( 'NONE', #3, #77, #101, .T. ) ;
#152 = APPLICATION_CONTEXT ( 'configuration controlled 3d designs of mechanical parts and assemblies' ) ;
#153 = COORDINATED_UNIVERSAL_TIME_OFFSET ( 5, 0, .BEHIND. ) ;
#154 = DIRECTION ( 'NONE',  ( -0.000000000000000000, -0.000000000000000000, -1.000000000000000000 ) ) ;
#155 = CARTESIAN_POINT ( 'NONE',  ( 10.00000000000000000, 1.224646799147353256E-15, 1.100000000000000089 ) ) ;
#156 = COORDINATED_UNIVERSAL_TIME_OFFSET ( 5, 0, .BEHIND. ) ;
#157 = ORIENTED_EDGE ( 'NONE', *, *, #27, .T. ) ;
#158 = PLANE ( 'NONE',  #117 ) ;
#159 = CARTESIAN_POINT ( 'NONE',  ( -10.00000000000000000, 0.000000000000000000, 1.100000000000000089 ) ) ;
#160 = APPROVAL ( #42, 'UNSPECIFIED' ) ;
#161 = CC_DESIGN_APPROVAL ( #160, ( #174 ) ) ;
#162 = APPLICATION_CONTEXT ( 'configuration controlled 3d designs of mechanical parts and assemblies' ) ;
#163 = CC_DESIGN_APPROVAL ( #9, ( #98 ) ) ;
#164 = ORIENTED_EDGE ( 'NONE', *, *, #107, .F. ) ;
#165 = ORGANIZATION ( 'UNSPECIFIED', 'UNSPECIFIED', '' ) ;
#166 = EDGE_CURVE ( 'NONE', #13, #77, #109, .T. ) ;
#167 = DIRECTION ( 'NONE',  ( 1.000000000000000000, 0.000000000000000000, -0.000000000000000000 ) ) ;
#168 = DATE_TIME_ROLE ( 'creation_date' ) ;
#169 = DIRECTION ( 'NONE',  ( 1.000000000000000000, 0.000000000000000000, 0.000000000000000000 ) ) ;
#170 = FACE_OUTER_BOUND ( 'NONE', #127, .T. ) ;
#171 = PERSON_AND_ORGANIZATION_ROLE ( 'creator' ) ;
#172 = EDGE_CURVE ( 'NONE', #49, #3, #26, .T. ) ;
#173 = CALENDAR_DATE ( 2022, 22, 6 ) ;
#174 = PRODUCT_DEFINITION ( 'UNKNOWN', '', #99, #67 ) ;
#175 = LOCAL_TIME ( 8, 58, 12.00000000000000000, #153 ) ;
ENDSEC;
END-ISO-10303-21;
