ISO-10303-21;
HEADER;
FILE_DESCRIPTION (( 'STEP AP203' ),
    '1' );
FILE_NAME ('Web Model 11876_13336.step',
    '2020-11-04T13:42:06',
    ( '' ),
    ( '' ),
    'SwSTEP 2.0',
    'SolidWorks 2018',
    '' );
FILE_SCHEMA (( 'CONFIG_CONTROL_DESIGN' ));
ENDSEC;

DATA;
#1 = EDGE_CURVE ( 'NONE', #146, #256, #169, .T. ) ;
#2 = CIRCLE ( 'NONE', #153, 12.45000000000000284 ) ;
#3 = VERTEX_POINT ( 'NONE', #70 ) ;
#4 = CARTESIAN_POINT ( 'NONE',  ( 0.4500000000000072276, 0.0000000000000000000, 0.0000000000000000000 ) ) ;
#5 = CARTESIAN_POINT ( 'NONE',  ( -0.4500000000000002887, 0.0000000000000000000, 0.0000000000000000000 ) ) ;
#6 = CALENDAR_DATE ( 2020, 4, 11 ) ;
#7 = DIRECTION ( 'NONE',  ( -1.000000000000000000, -0.0000000000000000000, -0.0000000000000000000 ) ) ;
#8 = AXIS2_PLACEMENT_3D ( 'NONE', #144, #60, #34 ) ;
#9 = CARTESIAN_POINT ( 'NONE',  ( 0.5000000000000000000, 0.0000000000000000000, 0.0000000000000000000 ) ) ;
#10 = ADVANCED_FACE ( 'NONE', ( #33 ), #234, .F. ) ;
#11 = DIRECTION ( 'NONE',  ( -1.000000000000000000, 0.0000000000000000000, 0.0000000000000000000 ) ) ;
#12 = EDGE_CURVE ( 'NONE', #156, #256, #143, .T. ) ;
#13 = DATE_AND_TIME ( #67, #179 ) ;
#14 = ORIENTED_EDGE ( 'NONE', *, *, #107, .F. ) ;
#15 = APPROVAL_STATUS ( 'not_yet_approved' ) ;
#16 = PERSON_AND_ORGANIZATION_ROLE ( 'design_supplier' ) ;
#17 = CALENDAR_DATE ( 2020, 4, 11 ) ;
#18 = COORDINATED_UNIVERSAL_TIME_OFFSET ( 5, 0, .BEHIND. ) ;
#19 = DATE_TIME_ROLE ( 'classification_date' ) ;
#20 = APPROVAL_PERSON_ORGANIZATION ( #131, #199, #267 ) ;
#21 = AXIS2_PLACEMENT_3D ( 'NONE', #51, #188, #260 ) ;
#22 = ORIENTED_EDGE ( 'NONE', *, *, #63, .F. ) ;
#23 = AXIS2_PLACEMENT_3D ( 'NONE', #235, #94, #115 ) ;
#24 = VECTOR ( 'NONE', #7, 1000.000000000000000 ) ;
#25 = CARTESIAN_POINT ( 'NONE',  ( 0.5000000000000000000, 0.0000000000000000000, 12.45000000000000284 ) ) ;
#26 = UNCERTAINTY_MEASURE_WITH_UNIT (LENGTH_MEASURE( 1.000000000000000082E-05 ), #189, 'distance_accuracy_value', 'NONE');
#27 = DIRECTION ( 'NONE',  ( 1.000000000000000000, 0.0000000000000000000, 0.0000000000000000000 ) ) ;
#28 = ORIENTED_EDGE ( 'NONE', *, *, #43, .F. ) ;
#29 = DIRECTION ( 'NONE',  ( 0.7071067811865597852, 8.659560562354782482E-17, 0.7071067811865352493 ) ) ;
#30 = EDGE_CURVE ( 'NONE', #85, #146, #183, .T. ) ;
#31 = ADVANCED_FACE ( 'NONE', ( #185 ), #166, .T. ) ;
#32 = LOCAL_TIME ( 8, 42, 6.000000000000000000, #18 ) ;
#33 = FACE_OUTER_BOUND ( 'NONE', #149, .T. ) ;
#34 = DIRECTION ( 'NONE',  ( 0.0000000000000000000, 0.0000000000000000000, -1.000000000000000000 ) ) ;
#35 = PRODUCT_DEFINITION_SHAPE ( 'NONE', 'NONE',  #125 ) ;
#36 = DIRECTION ( 'NONE',  ( 0.0000000000000000000, 0.0000000000000000000, 1.000000000000000000 ) ) ;
#37 = ORIENTED_EDGE ( 'NONE', *, *, #12, .T. ) ;
#38 = CC_DESIGN_PERSON_AND_ORGANIZATION_ASSIGNMENT ( #168, #247, ( #232 ) ) ;
#39 = DESIGN_CONTEXT ( 'detailed design', #242, 'design' ) ;
#40 = AXIS2_PLACEMENT_3D ( 'NONE', #73, #158, #58 ) ;
#41 = VECTOR ( 'NONE', #140, 1000.000000000000000 ) ;
#42 = EDGE_LOOP ( 'NONE', ( #106, #112, #77, #251 ) ) ;
#43 = EDGE_CURVE ( 'NONE', #256, #104, #83, .T. ) ;
#44 = ORIENTED_EDGE ( 'NONE', *, *, #43, .T. ) ;
#45 = PERSON ( 'UNSPECIFIED', 'UNSPECIFIED', 'UNSPECIFIED', ('UNSPECIFIED'), ('UNSPECIFIED'), ('UNSPECIFIED') ) ;
#46 = LOCAL_TIME ( 8, 42, 6.000000000000000000, #105 ) ;
#47 = AXIS2_PLACEMENT_3D ( 'NONE', #139, #117, #212 ) ;
#48 = AXIS2_PLACEMENT_3D ( 'NONE', #217, #78, #101 ) ;
#49 = VECTOR ( 'NONE', #170, 1000.000000000000000 ) ;
#50 = DIRECTION ( 'NONE',  ( 0.0000000000000000000, 0.0000000000000000000, -1.000000000000000000 ) ) ;
#51 = CARTESIAN_POINT ( 'NONE',  ( -0.4500000000000002887, 0.0000000000000000000, 0.0000000000000000000 ) ) ;
#52 = CC_DESIGN_APPROVAL ( #239, ( #232 ) ) ;
#53 = CARTESIAN_POINT ( 'NONE',  ( -0.4500000000000002887, 0.0000000000000000000, 12.50000000000000000 ) ) ;
#54 = DIRECTION ( 'NONE',  ( 1.000000000000000000, -0.0000000000000000000, -0.0000000000000000000 ) ) ;
#55 = ORIENTED_EDGE ( 'NONE', *, *, #12, .F. ) ;
#56 = AXIS2_PLACEMENT_3D ( 'NONE', #99, #145, #36 ) ;
#57 = DIRECTION ( 'NONE',  ( -1.000000000000000000, -0.0000000000000000000, -0.0000000000000000000 ) ) ;
#58 = DIRECTION ( 'NONE',  ( 0.0000000000000000000, 0.0000000000000000000, -1.000000000000000000 ) ) ;
#59 = PERSON_AND_ORGANIZATION ( #45, #160 ) ;
#60 = DIRECTION ( 'NONE',  ( 1.000000000000000000, 0.0000000000000000000, 0.0000000000000000000 ) ) ;
#61 = DIRECTION ( 'NONE',  ( 0.0000000000000000000, 0.0000000000000000000, -1.000000000000000000 ) ) ;
#62 = LINE ( 'NONE', #177, #103 ) ;
#63 = EDGE_CURVE ( 'NONE', #204, #134, #227, .T. ) ;
#64 = APPROVAL_STATUS ( 'not_yet_approved' ) ;
#65 = AXIS2_PLACEMENT_3D ( 'NONE', #4, #209, #50 ) ;
#66 = PRODUCT_RELATED_PRODUCT_CATEGORY ( 'detail', '', ( #254 ) ) ;
#67 = CALENDAR_DATE ( 2020, 4, 11 ) ;
#68 = COORDINATED_UNIVERSAL_TIME_OFFSET ( 5, 0, .BEHIND. ) ;
#69 = ORIENTED_EDGE ( 'NONE', *, *, #215, .F. ) ;
#70 = CARTESIAN_POINT ( 'NONE',  ( -0.4500000000000002887, 1.530808498934191521E-15, -12.50000000000000000 ) ) ;
#71 = DATE_AND_TIME ( #226, #46 ) ;
#72 = MANIFOLD_SOLID_BREP ( 'Chamfer1', #231 ) ;
#73 = CARTESIAN_POINT ( 'NONE',  ( -0.4500000000000002887, 0.0000000000000000000, 0.0000000000000000000 ) ) ;
#74 = AXIS2_PLACEMENT_3D ( 'NONE', #114, #261, #262 ) ;
#75 = DIRECTION ( 'NONE',  ( 0.0000000000000000000, 0.0000000000000000000, 1.000000000000000000 ) ) ;
#76 = CONICAL_SURFACE ( 'NONE', #40, 12.50000000000000000, 0.7853981633974309595 ) ;
#77 = ORIENTED_EDGE ( 'NONE', *, *, #84, .F. ) ;
#78 = DIRECTION ( 'NONE',  ( 0.0000000000000000000, 0.0000000000000000000, 1.000000000000000000 ) ) ;
#79 = APPROVAL ( #15, 'UNSPECIFIED' ) ;
#80 = DATE_TIME_ROLE ( 'creation_date' ) ;
#81 =( GEOMETRIC_REPRESENTATION_CONTEXT ( 3 ) GLOBAL_UNCERTAINTY_ASSIGNED_CONTEXT ( ( #26 ) ) GLOBAL_UNIT_ASSIGNED_CONTEXT ( ( #189, #175, #194 ) ) REPRESENTATION_CONTEXT ( 'NONE', 'WORKASPACE' ) );
#82 = CONICAL_SURFACE ( 'NONE', #180, 12.50000000000000000, 0.7853981633974309595 ) ;
#83 = LINE ( 'NONE', #89, #24 ) ;
#84 = EDGE_CURVE ( 'NONE', #256, #156, #121, .T. ) ;
#85 = VERTEX_POINT ( 'NONE', #171 ) ;
#86 = FACE_OUTER_BOUND ( 'NONE', #245, .T. ) ;
#87 = ORIENTED_EDGE ( 'NONE', *, *, #181, .F. ) ;
#88 = DIRECTION ( 'NONE',  ( -1.000000000000000000, 0.0000000000000000000, 0.0000000000000000000 ) ) ;
#89 = CARTESIAN_POINT ( 'NONE',  ( 0.5000000000000000000, 0.0000000000000000000, 12.50000000000000000 ) ) ;
#90 = ORIENTED_EDGE ( 'NONE', *, *, #30, .T. ) ;
#91 = EDGE_CURVE ( 'NONE', #3, #104, #268, .T. ) ;
#92 = CARTESIAN_POINT ( 'NONE',  ( -0.5000000000000000000, 0.0000000000000000000, 0.0000000000000000000 ) ) ;
#93 = ADVANCED_FACE ( 'NONE', ( #241 ), #138, .T. ) ;
#94 = DIRECTION ( 'NONE',  ( 1.000000000000000000, -0.0000000000000000000, -0.0000000000000000000 ) ) ;
#95 = CARTESIAN_POINT ( 'NONE',  ( -0.5000000000000000000, 0.0000000000000000000, 0.0000000000000000000 ) ) ;
#96 = ORIENTED_EDGE ( 'NONE', *, *, #107, .T. ) ;
#97 = CARTESIAN_POINT ( 'NONE',  ( 0.5000000000000000000, 0.0000000000000000000, 0.0000000000000000000 ) ) ;
#98 = MECHANICAL_CONTEXT ( 'NONE', #222, 'mechanical' ) ;
#99 = CARTESIAN_POINT ( 'NONE',  ( 0.5000000000000000000, 0.0000000000000000000, 0.0000000000000000000 ) ) ;
#100 = AXIS2_PLACEMENT_3D ( 'NONE', #213, #154, #113 ) ;
#101 = DIRECTION ( 'NONE',  ( 1.000000000000000000, 0.0000000000000000000, 0.0000000000000000000 ) ) ;
#102 = EDGE_LOOP ( 'NONE', ( #22, #201, #220, #87 ) ) ;
#103 = VECTOR ( 'NONE', #57, 1000.000000000000000 ) ;
#104 = VERTEX_POINT ( 'NONE', #53 ) ;
#105 = COORDINATED_UNIVERSAL_TIME_OFFSET ( 5, 0, .BEHIND. ) ;
#106 = ORIENTED_EDGE ( 'NONE', *, *, #30, .F. ) ;
#107 = EDGE_CURVE ( 'NONE', #104, #3, #184, .T. ) ;
#108 = PERSON_AND_ORGANIZATION ( #45, #160 ) ;
#109 = EDGE_LOOP ( 'NONE', ( #151, #37, #44, #96 ) ) ;
#110 = AXIS2_PLACEMENT_3D ( 'NONE', #9, #88, #259 ) ;
#111 = PERSON_AND_ORGANIZATION ( #45, #160 ) ;
#112 = ORIENTED_EDGE ( 'NONE', *, *, #215, .T. ) ;
#113 = DIRECTION ( 'NONE',  ( 0.0000000000000000000, 0.0000000000000000000, -1.000000000000000000 ) ) ;
#114 = CARTESIAN_POINT ( 'NONE',  ( -0.5000000000000000000, 0.0000000000000000000, 0.0000000000000000000 ) ) ;
#115 = DIRECTION ( 'NONE',  ( 0.0000000000000000000, 0.0000000000000000000, -1.000000000000000000 ) ) ;
#116 = DATE_AND_TIME ( #6, #228 ) ;
#117 = DIRECTION ( 'NONE',  ( 1.000000000000000000, 0.0000000000000000000, 0.0000000000000000000 ) ) ;
#118 = CARTESIAN_POINT ( 'NONE',  ( 0.5000000000000000000, 1.524685264938455237E-15, -12.45000000000000284 ) ) ;
#119 = CARTESIAN_POINT ( 'NONE',  ( -0.5000000000000000000, 1.527746881936323379E-15, 12.45000000000000284 ) ) ;
#120 = CALENDAR_DATE ( 2020, 4, 11 ) ;
#121 = CIRCLE ( 'NONE', #65, 12.50000000000000000 ) ;
#122 = APPROVAL_STATUS ( 'not_yet_approved' ) ;
#123 = EDGE_CURVE ( 'NONE', #134, #204, #2, .T. ) ;
#124 = CONICAL_SURFACE ( 'NONE', #272, 12.45000000000000284, 0.7853981633975003485 ) ;
#125 = PRODUCT_DEFINITION ( 'UNKNOWN', '', #202, #39 ) ;
#126 = LINE ( 'NONE', #118, #155 ) ;
#127 = APPROVAL_ROLE ( '' ) ;
#128 = ORIENTED_EDGE ( 'NONE', *, *, #123, .F. ) ;
#129 = CC_DESIGN_APPROVAL ( #79, ( #202 ) ) ;
#130 = CC_DESIGN_PERSON_AND_ORGANIZATION_ASSIGNMENT ( #108, #178, ( #125 ) ) ;
#131 = PERSON_AND_ORGANIZATION ( #45, #160 ) ;
#132 = COORDINATED_UNIVERSAL_TIME_OFFSET ( 5, 0, .BEHIND. ) ;
#133 = LINE ( 'NONE', #195, #206 ) ;
#134 = VERTEX_POINT ( 'NONE', #172 ) ;
#135 = AXIS2_PLACEMENT_3D ( 'NONE', #97, #265, #237 ) ;
#136 = ADVANCED_FACE ( 'NONE', ( #173 ), #82, .T. ) ;
#137 = ORIENTED_EDGE ( 'NONE', *, *, #181, .T. ) ;
#138 = PLANE ( 'NONE',  #252 ) ;
#139 = CARTESIAN_POINT ( 'NONE',  ( 0.5000000000000000000, 0.0000000000000000000, 0.0000000000000000000 ) ) ;
#140 = DIRECTION ( 'NONE',  ( 0.7071067811865597852, 0.0000000000000000000, -0.7071067811865352493 ) ) ;
#141 = FACE_OUTER_BOUND ( 'NONE', #109, .T. ) ;
#142 = CC_DESIGN_APPROVAL ( #199, ( #125 ) ) ;
#143 = CIRCLE ( 'NONE', #100, 12.50000000000000000 ) ;
#144 = CARTESIAN_POINT ( 'NONE',  ( 0.5000000000000000000, 0.0000000000000000000, 0.0000000000000000000 ) ) ;
#145 = DIRECTION ( 'NONE',  ( -1.000000000000000000, -0.0000000000000000000, -0.0000000000000000000 ) ) ;
#146 = VERTEX_POINT ( 'NONE', #157 ) ;
#147 = PERSON_AND_ORGANIZATION ( #45, #160 ) ;
#148 = ORIENTED_EDGE ( 'NONE', *, *, #123, .T. ) ;
#149 = EDGE_LOOP ( 'NONE', ( #148, #161 ) ) ;
#150 = CC_DESIGN_PERSON_AND_ORGANIZATION_ASSIGNMENT ( #230, #243, ( #254 ) ) ;
#151 = ORIENTED_EDGE ( 'NONE', *, *, #229, .F. ) ;
#152 = DIRECTION ( 'NONE',  ( 0.0000000000000000000, 0.0000000000000000000, -1.000000000000000000 ) ) ;
#153 = AXIS2_PLACEMENT_3D ( 'NONE', #95, #269, #174 ) ;
#154 = DIRECTION ( 'NONE',  ( -1.000000000000000000, 0.0000000000000000000, 0.0000000000000000000 ) ) ;
#155 = VECTOR ( 'NONE', #159, 1000.000000000000000 ) ;
#156 = VERTEX_POINT ( 'NONE', #216 ) ;
#157 = CARTESIAN_POINT ( 'NONE',  ( 0.5000000000000000000, 0.0000000000000000000, 12.45000000000000284 ) ) ;
#158 = DIRECTION ( 'NONE',  ( 1.000000000000000000, -0.0000000000000000000, -0.0000000000000000000 ) ) ;
#159 = DIRECTION ( 'NONE',  ( -0.7071067811865107133, 8.659560562355383988E-17, -0.7071067811865843211 ) ) ;
#160 = ORGANIZATION ( 'UNSPECIFIED', 'UNSPECIFIED', '' ) ;
#161 = ORIENTED_EDGE ( 'NONE', *, *, #63, .T. ) ;
#162 = CARTESIAN_POINT ( 'NONE',  ( -0.4500000000000002887, 0.0000000000000000000, -12.50000000000000000 ) ) ;
#163 = EDGE_CURVE ( 'NONE', #204, #104, #133, .T. ) ;
#164 = APPROVAL_PERSON_ORGANIZATION ( #214, #239, #127 ) ;
#165 = APPROVAL_DATE_TIME ( #250, #79 ) ;
#166 = CONICAL_SURFACE ( 'NONE', #110, 12.45000000000000284, 0.7853981633975003485 ) ;
#167 = CC_DESIGN_DATE_AND_TIME_ASSIGNMENT ( #71, #80, ( #125 ) ) ;
#168 = PERSON_AND_ORGANIZATION ( #45, #160 ) ;
#169 = LINE ( 'NONE', #25, #49 ) ;
#170 = DIRECTION ( 'NONE',  ( -0.7071067811865107133, 0.0000000000000000000, 0.7071067811865843211 ) ) ;
#171 = CARTESIAN_POINT ( 'NONE',  ( 0.5000000000000000000, 1.527746881936323379E-15, -12.45000000000000284 ) ) ;
#172 = CARTESIAN_POINT ( 'NONE',  ( -0.5000000000000000000, 0.0000000000000000000, -12.45000000000000284 ) ) ;
#173 = FACE_OUTER_BOUND ( 'NONE', #102, .T. ) ;
#174 = DIRECTION ( 'NONE',  ( 0.0000000000000000000, 0.0000000000000000000, -1.000000000000000000 ) ) ;
#175 =( NAMED_UNIT ( * ) PLANE_ANGLE_UNIT ( ) SI_UNIT ( $, .RADIAN. ) );
#176 = ORIENTED_EDGE ( 'NONE', *, *, #163, .F. ) ;
#177 = CARTESIAN_POINT ( 'NONE',  ( 0.5000000000000000000, 1.530808498934191521E-15, -12.50000000000000000 ) ) ;
#178 = PERSON_AND_ORGANIZATION_ROLE ( 'creator' ) ;
#179 = LOCAL_TIME ( 8, 42, 6.000000000000000000, #68 ) ;
#180 = AXIS2_PLACEMENT_3D ( 'NONE', #5, #54, #61 ) ;
#181 = EDGE_CURVE ( 'NONE', #134, #3, #224, .T. ) ;
#182 = FACE_OUTER_BOUND ( 'NONE', #198, .T. ) ;
#183 = CIRCLE ( 'NONE', #47, 12.45000000000000284 ) ;
#184 = CIRCLE ( 'NONE', #23, 12.50000000000000000 ) ;
#185 = FACE_OUTER_BOUND ( 'NONE', #258, .T. ) ;
#186 = ORIENTED_EDGE ( 'NONE', *, *, #229, .T. ) ;
#187 = DIRECTION ( 'NONE',  ( -1.000000000000000000, -0.0000000000000000000, -0.0000000000000000000 ) ) ;
#188 = DIRECTION ( 'NONE',  ( 1.000000000000000000, -0.0000000000000000000, -0.0000000000000000000 ) ) ;
#189 =( LENGTH_UNIT ( ) NAMED_UNIT ( * ) SI_UNIT ( .MILLI., .METRE. ) );
#190 = APPROVAL_DATE_TIME ( #13, #199 ) ;
#191 = EDGE_LOOP ( 'NONE', ( #207, #90 ) ) ;
#192 = ADVANCED_FACE ( 'NONE', ( #271 ), #124, .T. ) ;
#193 = APPLICATION_PROTOCOL_DEFINITION ( 'international standard', 'config_control_design', 1994, #222 ) ;
#194 =( NAMED_UNIT ( * ) SI_UNIT ( $, .STERADIAN. ) SOLID_ANGLE_UNIT ( ) );
#195 = CARTESIAN_POINT ( 'NONE',  ( -0.4500000000000002887, 1.530808498934191521E-15, 12.50000000000000000 ) ) ;
#196 = CARTESIAN_POINT ( 'NONE',  ( 0.4500000000000072276, 0.0000000000000000000, 12.50000000000000000 ) ) ;
#197 = EDGE_CURVE ( 'NONE', #146, #85, #263, .T. ) ;
#198 = EDGE_LOOP ( 'NONE', ( #176, #128, #137, #14 ) ) ;
#199 = APPROVAL ( #122, 'UNSPECIFIED' ) ;
#200 = CC_DESIGN_SECURITY_CLASSIFICATION ( #232, ( #202 ) ) ;
#201 = ORIENTED_EDGE ( 'NONE', *, *, #163, .T. ) ;
#202 = PRODUCT_DEFINITION_FORMATION_WITH_SPECIFIED_SOURCE ( 'ANY', '', #254, .NOT_KNOWN. ) ;
#203 = CYLINDRICAL_SURFACE ( 'NONE', #56, 12.50000000000000000 ) ;
#204 = VERTEX_POINT ( 'NONE', #119 ) ;
#205 = CC_DESIGN_PERSON_AND_ORGANIZATION_ASSIGNMENT ( #59, #16, ( #202 ) ) ;
#206 = VECTOR ( 'NONE', #29, 1000.000000000000000 ) ;
#207 = ORIENTED_EDGE ( 'NONE', *, *, #197, .T. ) ;
#208 = ADVANCED_FACE ( 'NONE', ( #141 ), #203, .T. ) ;
#209 = DIRECTION ( 'NONE',  ( -1.000000000000000000, 0.0000000000000000000, 0.0000000000000000000 ) ) ;
#210 = CC_DESIGN_PERSON_AND_ORGANIZATION_ASSIGNMENT ( #111, #223, ( #202 ) ) ;
#211 = ADVANCED_FACE ( 'NONE', ( #86 ), #240, .T. ) ;
#212 = DIRECTION ( 'NONE',  ( 0.0000000000000000000, 0.0000000000000000000, -1.000000000000000000 ) ) ;
#213 = CARTESIAN_POINT ( 'NONE',  ( 0.4500000000000072276, 0.0000000000000000000, 0.0000000000000000000 ) ) ;
#214 = PERSON_AND_ORGANIZATION ( #45, #160 ) ;
#215 = EDGE_CURVE ( 'NONE', #85, #156, #126, .T. ) ;
#216 = CARTESIAN_POINT ( 'NONE',  ( 0.4500000000000072276, 1.530808498934191521E-15, -12.50000000000000000 ) ) ;
#217 = CARTESIAN_POINT ( 'NONE',  ( 0.0000000000000000000, 0.0000000000000000000, 0.0000000000000000000 ) ) ;
#218 = APPLICATION_PROTOCOL_DEFINITION ( 'international standard', 'config_control_design', 1994, #242 ) ;
#219 = APPROVAL_PERSON_ORGANIZATION ( #147, #79, #244 ) ;
#220 = ORIENTED_EDGE ( 'NONE', *, *, #91, .F. ) ;
#221 = CC_DESIGN_DATE_AND_TIME_ASSIGNMENT ( #116, #19, ( #232 ) ) ;
#222 = APPLICATION_CONTEXT ( 'configuration controlled 3d designs of mechanical parts and assemblies' ) ;
#223 = PERSON_AND_ORGANIZATION_ROLE ( 'creator' ) ;
#224 = LINE ( 'NONE', #162, #41 ) ;
#225 = SECURITY_CLASSIFICATION_LEVEL ( 'unclassified' ) ;
#226 = CALENDAR_DATE ( 2020, 4, 11 ) ;
#227 = CIRCLE ( 'NONE', #246, 12.45000000000000284 ) ;
#228 = LOCAL_TIME ( 8, 42, 6.000000000000000000, #274 ) ;
#229 = EDGE_CURVE ( 'NONE', #156, #3, #62, .T. ) ;
#230 = PERSON_AND_ORGANIZATION ( #45, #160 ) ;
#231 = CLOSED_SHELL ( 'NONE', ( #136, #192, #211, #208, #93, #10, #31, #236 ) ) ;
#232 = SECURITY_CLASSIFICATION ( '', '', #225 ) ;
#233 = CARTESIAN_POINT ( 'NONE',  ( 0.5000000000000000000, 0.0000000000000000000, 0.0000000000000000000 ) ) ;
#234 = PLANE ( 'NONE',  #74 ) ;
#235 = CARTESIAN_POINT ( 'NONE',  ( -0.4500000000000002887, 0.0000000000000000000, 0.0000000000000000000 ) ) ;
#236 = ADVANCED_FACE ( 'NONE', ( #182 ), #76, .T. ) ;
#237 = DIRECTION ( 'NONE',  ( 0.0000000000000000000, 0.0000000000000000000, 1.000000000000000000 ) ) ;
#238 = LOCAL_TIME ( 8, 42, 6.000000000000000000, #132 ) ;
#239 = APPROVAL ( #64, 'UNSPECIFIED' ) ;
#240 = CYLINDRICAL_SURFACE ( 'NONE', #135, 12.50000000000000000 ) ;
#241 = FACE_OUTER_BOUND ( 'NONE', #191, .T. ) ;
#242 = APPLICATION_CONTEXT ( 'configuration controlled 3d designs of mechanical parts and assemblies' ) ;
#243 = PERSON_AND_ORGANIZATION_ROLE ( 'design_owner' ) ;
#244 = APPROVAL_ROLE ( '' ) ;
#245 = EDGE_LOOP ( 'NONE', ( #273, #186, #253, #28 ) ) ;
#246 = AXIS2_PLACEMENT_3D ( 'NONE', #92, #187, #152 ) ;
#247 = PERSON_AND_ORGANIZATION_ROLE ( 'classification_officer' ) ;
#248 = ADVANCED_BREP_SHAPE_REPRESENTATION ( 'Web Model 11876_13336', ( #72, #48 ), #81 ) ;
#249 = DATE_AND_TIME ( #17, #238 ) ;
#250 = DATE_AND_TIME ( #120, #32 ) ;
#251 = ORIENTED_EDGE ( 'NONE', *, *, #1, .F. ) ;
#252 = AXIS2_PLACEMENT_3D ( 'NONE', #233, #27, #257 ) ;
#253 = ORIENTED_EDGE ( 'NONE', *, *, #91, .T. ) ;
#254 = PRODUCT ( 'Web Model 11876_13336', 'Web Model 11876_13336', '', ( #98 ) ) ;
#255 = SHAPE_DEFINITION_REPRESENTATION ( #35, #248 ) ;
#256 = VERTEX_POINT ( 'NONE', #196 ) ;
#257 = DIRECTION ( 'NONE',  ( 0.0000000000000000000, 0.0000000000000000000, -1.000000000000000000 ) ) ;
#258 = EDGE_LOOP ( 'NONE', ( #69, #264, #275, #55 ) ) ;
#259 = DIRECTION ( 'NONE',  ( 0.0000000000000000000, 0.0000000000000000000, 1.000000000000000000 ) ) ;
#260 = DIRECTION ( 'NONE',  ( 0.0000000000000000000, 0.0000000000000000000, -1.000000000000000000 ) ) ;
#261 = DIRECTION ( 'NONE',  ( 1.000000000000000000, 0.0000000000000000000, 0.0000000000000000000 ) ) ;
#262 = DIRECTION ( 'NONE',  ( 0.0000000000000000000, 0.0000000000000000000, -1.000000000000000000 ) ) ;
#263 = CIRCLE ( 'NONE', #8, 12.45000000000000284 ) ;
#264 = ORIENTED_EDGE ( 'NONE', *, *, #197, .F. ) ;
#265 = DIRECTION ( 'NONE',  ( -1.000000000000000000, -0.0000000000000000000, -0.0000000000000000000 ) ) ;
#266 = CARTESIAN_POINT ( 'NONE',  ( 0.5000000000000000000, 0.0000000000000000000, 0.0000000000000000000 ) ) ;
#267 = APPROVAL_ROLE ( '' ) ;
#268 = CIRCLE ( 'NONE', #21, 12.50000000000000000 ) ;
#269 = DIRECTION ( 'NONE',  ( -1.000000000000000000, -0.0000000000000000000, -0.0000000000000000000 ) ) ;
#270 = APPROVAL_DATE_TIME ( #249, #239 ) ;
#271 = FACE_OUTER_BOUND ( 'NONE', #42, .T. ) ;
#272 = AXIS2_PLACEMENT_3D ( 'NONE', #266, #11, #75 ) ;
#273 = ORIENTED_EDGE ( 'NONE', *, *, #84, .T. ) ;
#274 = COORDINATED_UNIVERSAL_TIME_OFFSET ( 5, 0, .BEHIND. ) ;
#275 = ORIENTED_EDGE ( 'NONE', *, *, #1, .T. ) ;
ENDSEC;
END-ISO-10303-21;
