ISO-10303-21;
HEADER;
FILE_DESCRIPTION (( 'STEP AP203' ),
    '1' );
FILE_NAME ('step_49001.step',
    '2014-06-05T18:40:06',
    ( '' ),
    ( '' ),
    'SwSTEP 2.0',
    'SolidWorks 2014',
    '' );
FILE_SCHEMA (( 'CONFIG_CONTROL_DESIGN' ));
ENDSEC;

DATA;
#1 = CC_DESIGN_APPROVAL ( #4, ( #17 ) ) ;
#2 = ORIENTED_EDGE ( 'NONE', *, *, #274, .T. ) ;
#3 = LOCAL_TIME ( 11, 40, 6.000000000000000000, #296 ) ;
#4 = APPROVAL ( #72, 'UNSPECIFIED' ) ;
#5 = ORIENTED_EDGE ( 'NONE', *, *, #175, .T. ) ;
#6 = VERTEX_POINT ( 'NONE', #172 ) ;
#7 = PLANE ( 'NONE',  #262 ) ;
#8 = CC_DESIGN_DATE_AND_TIME_ASSIGNMENT ( #205, #40, ( #17 ) ) ;
#9 = ORIENTED_EDGE ( 'NONE', *, *, #313, .F. ) ;
#10 = ORIENTED_EDGE ( 'NONE', *, *, #241, .F. ) ;
#11 = CC_DESIGN_PERSON_AND_ORGANIZATION_ASSIGNMENT ( #270, #252, ( #17 ) ) ;
#12 = EDGE_LOOP ( 'NONE', ( #240, #161, #319 ) ) ;
#13 = FACE_OUTER_BOUND ( 'NONE', #83, .T. ) ;
#14 = VECTOR ( 'NONE', #210, 1000.000000000000000 ) ;
#15 = PERSON_AND_ORGANIZATION_ROLE ( 'design_owner' ) ;
#16 = ORIENTED_EDGE ( 'NONE', *, *, #297, .F. ) ;
#17 = SECURITY_CLASSIFICATION ( '', '', #176 ) ;
#18 = CC_DESIGN_PERSON_AND_ORGANIZATION_ASSIGNMENT ( #135, #129, ( #37 ) ) ;
#19 = LINE ( 'NONE', #149, #211 ) ;
#20 = CC_DESIGN_PERSON_AND_ORGANIZATION_ASSIGNMENT ( #230, #154, ( #37 ) ) ;
#21 = ORIENTED_EDGE ( 'NONE', *, *, #305, .F. ) ;
#22 = DIRECTION ( 'NONE',  ( -1.734723475976806800E-016, 1.000000000000000000, -0.0000000000000000000 ) ) ;
#23 = ORIENTED_EDGE ( 'NONE', *, *, #94, .F. ) ;
#24 = LINE ( 'NONE', #315, #247 ) ;
#25 = CC_DESIGN_APPROVAL ( #32, ( #37 ) ) ;
#26 = APPROVAL_DATE_TIME ( #200, #61 ) ;
#27 = DIRECTION ( 'NONE',  ( 1.000000000000000000, -9.182963861547803600E-017, -0.0000000000000000000 ) ) ;
#28 = ORIENTED_EDGE ( 'NONE', *, *, #255, .F. ) ;
#29 = FACE_OUTER_BOUND ( 'NONE', #144, .T. ) ;
#30 = CALENDAR_DATE ( 2014, 5, 6 ) ;
#31 = PERSON_AND_ORGANIZATION ( #131, #104 ) ;
#32 = APPROVAL ( #275, 'UNSPECIFIED' ) ;
#33 = ADVANCED_FACE ( 'NONE', ( #199 ), #164, .F. ) ;
#34 = EDGE_CURVE ( 'NONE', #45, #71, #223, .T. ) ;
#35 = ORIENTED_EDGE ( 'NONE', *, *, #128, .F. ) ;
#36 = CARTESIAN_POINT ( 'NONE',  ( 20.00000000000000400, -1.836592772309561100E-015, 20.00000000000000000 ) ) ;
#37 = PRODUCT_DEFINITION_FORMATION_WITH_SPECIFIED_SOURCE ( 'ANY', '', #105, .NOT_KNOWN. ) ;
#38 = APPLICATION_CONTEXT ( 'configuration controlled 3d designs of mechanical parts and assemblies' ) ;
#39 = LINE ( 'NONE', #310, #52 ) ;
#40 = DATE_TIME_ROLE ( 'classification_date' ) ;
#41 = EDGE_LOOP ( 'NONE', ( #168, #208, #185, #2 ) ) ;
#42 = LINE ( 'NONE', #206, #14 ) ;
#43 = CARTESIAN_POINT ( 'NONE',  ( 0.0000000000000000000, 0.0000000000000000000, 20.00000000000000000 ) ) ;
#44 = CC_DESIGN_DATE_AND_TIME_ASSIGNMENT ( #307, #122, ( #69 ) ) ;
#45 = VERTEX_POINT ( 'NONE', #115 ) ;
#46 = ORIENTED_EDGE ( 'NONE', *, *, #121, .F. ) ;
#47 = LINE ( 'NONE', #36, #125 ) ;
#48 = CARTESIAN_POINT ( 'NONE',  ( 0.0000000000000000000, 0.0000000000000000000, 20.00000000000000000 ) ) ;
#49 = CC_DESIGN_PERSON_AND_ORGANIZATION_ASSIGNMENT ( #311, #70, ( #69 ) ) ;
#50 = CARTESIAN_POINT ( 'NONE',  ( 0.0000000000000000000, 0.0000000000000000000, 0.0000000000000000000 ) ) ;
#51 = CARTESIAN_POINT ( 'NONE',  ( 20.00000000000000000, 20.00000000000000000, 20.00000000000000000 ) ) ;
#52 = VECTOR ( 'NONE', #306, 1000.000000000000000 ) ;
#53 = EDGE_CURVE ( 'NONE', #71, #250, #212, .T. ) ;
#54 = CALENDAR_DATE ( 2014, 5, 6 ) ;
#55 = ADVANCED_BREP_SHAPE_REPRESENTATION ( 'step_49001', ( #239, #316, #91 ), #146 ) ;
#56 = EDGE_LOOP ( 'NONE', ( #21, #46, #16 ) ) ;
#57 = CC_DESIGN_APPROVAL ( #61, ( #69 ) ) ;
#58 = COORDINATED_UNIVERSAL_TIME_OFFSET ( 7, 0, .BEHIND. ) ;
#59 = ADVANCED_FACE ( 'NONE', ( #29 ), #216, .F. ) ;
#60 = CALENDAR_DATE ( 2014, 5, 6 ) ;
#61 = APPROVAL ( #67, 'UNSPECIFIED' ) ;
#62 = CARTESIAN_POINT ( 'NONE',  ( 0.0000000000000000000, 0.0000000000000000000, 20.00000000000000000 ) ) ;
#63 = ORIENTED_EDGE ( 'NONE', *, *, #294, .F. ) ;
#64 = LINE ( 'NONE', #257, #77 ) ;
#65 =( LENGTH_UNIT ( ) NAMED_UNIT ( * ) SI_UNIT ( .MILLI., .METRE. ) );
#66 = CARTESIAN_POINT ( 'NONE',  ( 0.0000000000000000000, 0.0000000000000000000, 0.0000000000000000000 ) ) ;
#67 = APPROVAL_STATUS ( 'not_yet_approved' ) ;
#68 = DIRECTION ( 'NONE',  ( 0.7071067811865474600, 0.7071067811865474600, 0.0000000000000000000 ) ) ;
#69 = PRODUCT_DEFINITION ( 'UNKNOWN', '', #37, #110 ) ;
#70 = PERSON_AND_ORGANIZATION_ROLE ( 'creator' ) ;
#71 = VERTEX_POINT ( 'NONE', #88 ) ;
#72 = APPROVAL_STATUS ( 'not_yet_approved' ) ;
#73 = DIRECTION ( 'NONE',  ( 0.7071067811865475700, -0.7071067811865475700, 0.0000000000000000000 ) ) ;
#74 = DIRECTION ( 'NONE',  ( 0.0000000000000000000, 0.0000000000000000000, -1.000000000000000000 ) ) ;
#75 = DIRECTION ( 'NONE',  ( 1.000000000000000000, 0.0000000000000000000, 0.0000000000000000000 ) ) ;
#76 = EDGE_CURVE ( 'NONE', #78, #258, #123, .T. ) ;
#77 = VECTOR ( 'NONE', #254, 1000.000000000000000 ) ;
#78 = VERTEX_POINT ( 'NONE', #48 ) ;
#79 = CARTESIAN_POINT ( 'NONE',  ( 0.0000000000000000000, 0.0000000000000000000, 20.00000000000000000 ) ) ;
#80 = DIRECTION ( 'NONE',  ( -0.0000000000000000000, -0.0000000000000000000, -1.000000000000000000 ) ) ;
#81 = FACE_OUTER_BOUND ( 'NONE', #117, .T. ) ;
#82 = VECTOR ( 'NONE', #304, 1000.000000000000100 ) ;
#83 = EDGE_LOOP ( 'NONE', ( #264, #10, #63, #166 ) ) ;
#84 = CC_DESIGN_PERSON_AND_ORGANIZATION_ASSIGNMENT ( #224, #15, ( #105 ) ) ;
#85 = CARTESIAN_POINT ( 'NONE',  ( 0.0000000000000000000, 0.0000000000000000000, 20.00000000000000000 ) ) ;
#86 = DIRECTION ( 'NONE',  ( 0.7071067811865474600, 0.7071067811865474600, -0.0000000000000000000 ) ) ;
#87 = DIRECTION ( 'NONE',  ( -0.7071067811865474600, -0.7071067811865474600, -0.0000000000000000000 ) ) ;
#88 = CARTESIAN_POINT ( 'NONE',  ( 20.00000000000000000, 20.00000000000000000, 20.00000000000000000 ) ) ;
#89 = ORIENTED_EDGE ( 'NONE', *, *, #34, .F. ) ;
#90 = ADVANCED_FACE ( 'NONE', ( #173 ), #7, .F. ) ;
#91 = AXIS2_PLACEMENT_3D ( 'NONE', #50, #99, #314 ) ;
#92 = VECTOR ( 'NONE', #87, 1000.000000000000100 ) ;
#93 = CARTESIAN_POINT ( 'NONE',  ( 20.00000000000000000, 20.00000000000000000, 0.0000000000000000000 ) ) ;
#94 = EDGE_CURVE ( 'NONE', #244, #256, #24, .T. ) ;
#95 = VERTEX_POINT ( 'NONE', #318 ) ;
#96 = LINE ( 'NONE', #309, #82 ) ;
#97 = APPROVAL_ROLE ( '' ) ;
#98 = DIRECTION ( 'NONE',  ( 0.7071067811865474600, 0.7071067811865474600, -0.0000000000000000000 ) ) ;
#99 = DIRECTION ( 'NONE',  ( 0.0000000000000000000, 0.0000000000000000000, 1.000000000000000000 ) ) ;
#100 = LINE ( 'NONE', #93, #170 ) ;
#101 = LINE ( 'NONE', #157, #126 ) ;
#102 = APPLICATION_PROTOCOL_DEFINITION ( 'international standard', 'config_control_design', 1994, #295 ) ;
#103 = ORIENTED_EDGE ( 'NONE', *, *, #317, .F. ) ;
#104 = ORGANIZATION ( 'UNSPECIFIED', 'UNSPECIFIED', '' ) ;
#105 = PRODUCT ( 'step_49001', 'step_49001', '', ( #276 ) ) ;
#106 = CARTESIAN_POINT ( 'NONE',  ( 20.00000000000000000, 20.00000000000000000, 20.00000000000000000 ) ) ;
#107 = EDGE_LOOP ( 'NONE', ( #281, #227, #23, #203 ) ) ;
#108 = DIRECTION ( 'NONE',  ( -1.000000000000000000, -0.0000000000000000000, -0.0000000000000000000 ) ) ;
#109 = COORDINATED_UNIVERSAL_TIME_OFFSET ( 7, 0, .BEHIND. ) ;
#110 = DESIGN_CONTEXT ( 'detailed design', #38, 'design' ) ;
#111 = VECTOR ( 'NONE', #321, 1000.000000000000000 ) ;
#112 = DIRECTION ( 'NONE',  ( -1.000000000000000000, -0.0000000000000000000, -0.0000000000000000000 ) ) ;
#113 = APPROVAL_DATE_TIME ( #303, #32 ) ;
#114 = COORDINATED_UNIVERSAL_TIME_OFFSET ( 7, 0, .BEHIND. ) ;
#115 = CARTESIAN_POINT ( 'NONE',  ( 20.00000000000000400, -1.836592772309561100E-015, 20.00000000000000000 ) ) ;
#116 = ORIENTED_EDGE ( 'NONE', *, *, #317, .T. ) ;
#117 = EDGE_LOOP ( 'NONE', ( #5, #28, #9, #169 ) ) ;
#118 = DIRECTION ( 'NONE',  ( 1.734723475976806800E-016, -1.000000000000000000, 0.0000000000000000000 ) ) ;
#119 = CARTESIAN_POINT ( 'NONE',  ( 0.0000000000000000000, 20.00000000000000000, 20.00000000000000000 ) ) ;
#120 = FACE_OUTER_BOUND ( 'NONE', #56, .T. ) ;
#121 = EDGE_CURVE ( 'NONE', #6, #288, #39, .T. ) ;
#122 = DATE_TIME_ROLE ( 'creation_date' ) ;
#123 = LINE ( 'NONE', #62, #285 ) ;
#124 = APPROVAL_ROLE ( '' ) ;
#125 = VECTOR ( 'NONE', #27, 1000.000000000000000 ) ;
#126 = VECTOR ( 'NONE', #108, 1000.000000000000000 ) ;
#127 = PLANE ( 'NONE',  #143 ) ;
#128 = EDGE_CURVE ( 'NONE', #71, #78, #96, .T. ) ;
#129 = PERSON_AND_ORGANIZATION_ROLE ( 'design_supplier' ) ;
#130 = PERSON_AND_ORGANIZATION ( #131, #104 ) ;
#131 = PERSON ( 'UNSPECIFIED', 'UNSPECIFIED', 'UNSPECIFIED', ('UNSPECIFIED'), ('UNSPECIFIED'), ('UNSPECIFIED') ) ;
#132 = LINE ( 'NONE', #235, #251 ) ;
#133 = CLOSED_SHELL ( 'NONE', ( #267, #33, #59, #217, #171 ) ) ;
#134 = CALENDAR_DATE ( 2014, 5, 6 ) ;
#135 = PERSON_AND_ORGANIZATION ( #131, #104 ) ;
#136 = DIRECTION ( 'NONE',  ( -1.000000000000000000, -1.734723475976806800E-016, 0.0000000000000000000 ) ) ;
#137 = CC_DESIGN_SECURITY_CLASSIFICATION ( #17, ( #37 ) ) ;
#138 = DIRECTION ( 'NONE',  ( -1.000000000000000000, 0.0000000000000000000, 0.0000000000000000000 ) ) ;
#139 = CALENDAR_DATE ( 2014, 5, 6 ) ;
#140 = DIRECTION ( 'NONE',  ( 0.0000000000000000000, 0.0000000000000000000, -1.000000000000000000 ) ) ;
#141 = CARTESIAN_POINT ( 'NONE',  ( 0.0000000000000000000, 0.0000000000000000000, 0.0000000000000000000 ) ) ;
#142 = PLANE ( 'NONE',  #158 ) ;
#143 = AXIS2_PLACEMENT_3D ( 'NONE', #79, #75, #74 ) ;
#144 = EDGE_LOOP ( 'NONE', ( #116, #218, #35, #265 ) ) ;
#145 = ADVANCED_FACE ( 'NONE', ( #13 ), #243, .F. ) ;
#146 =( GEOMETRIC_REPRESENTATION_CONTEXT ( 3 ) GLOBAL_UNCERTAINTY_ASSIGNED_CONTEXT ( ( #231 ) ) GLOBAL_UNIT_ASSIGNED_CONTEXT ( ( #65, #152, #178 ) ) REPRESENTATION_CONTEXT ( 'NONE', 'WORKASPACE' ) );
#147 = APPROVAL_PERSON_ORGANIZATION ( #292, #32, #97 ) ;
#148 = DIRECTION ( 'NONE',  ( -0.0000000000000000000, -0.0000000000000000000, -1.000000000000000000 ) ) ;
#149 = CARTESIAN_POINT ( 'NONE',  ( 0.0000000000000000000, 0.0000000000000000000, 20.00000000000000000 ) ) ;
#150 = CARTESIAN_POINT ( 'NONE',  ( 20.00000000000000000, 20.00000000000000000, 20.00000000000000000 ) ) ;
#151 = ORIENTED_EDGE ( 'NONE', *, *, #53, .F. ) ;
#152 =( NAMED_UNIT ( * ) PLANE_ANGLE_UNIT ( ) SI_UNIT ( $, .RADIAN. ) );
#153 = EDGE_CURVE ( 'NONE', #184, #250, #236, .T. ) ;
#154 = PERSON_AND_ORGANIZATION_ROLE ( 'creator' ) ;
#155 = VECTOR ( 'NONE', #22, 1000.000000000000000 ) ;
#156 = ORIENTED_EDGE ( 'NONE', *, *, #153, .F. ) ;
#157 = CARTESIAN_POINT ( 'NONE',  ( 0.0000000000000000000, 20.00000000000000000, 0.0000000000000000000 ) ) ;
#158 = AXIS2_PLACEMENT_3D ( 'NONE', #141, #140, #138 ) ;
#159 = DIRECTION ( 'NONE',  ( -1.000000000000000000, 9.182963861547803600E-017, 0.0000000000000000000 ) ) ;
#160 = CLOSED_SHELL ( 'NONE', ( #194, #145, #308, #90, #289 ) ) ;
#161 = ORIENTED_EDGE ( 'NONE', *, *, #294, .T. ) ;
#162 = CARTESIAN_POINT ( 'NONE',  ( 20.00000000000000000, 20.00000000000000000, 20.00000000000000000 ) ) ;
#163 = FACE_OUTER_BOUND ( 'NONE', #273, .T. ) ;
#164 = PLANE ( 'NONE',  #284 ) ;
#165 = DIRECTION ( 'NONE',  ( 9.182963861547803600E-017, 1.000000000000000000, -0.0000000000000000000 ) ) ;
#166 = ORIENTED_EDGE ( 'NONE', *, *, #198, .T. ) ;
#167 = CARTESIAN_POINT ( 'NONE',  ( 20.00000000000000400, -1.836592772309561100E-015, 20.00000000000000000 ) ) ;
#168 = ORIENTED_EDGE ( 'NONE', *, *, #305, .T. ) ;
#169 = ORIENTED_EDGE ( 'NONE', *, *, #76, .T. ) ;
#170 = VECTOR ( 'NONE', #86, 1000.000000000000100 ) ;
#171 = ADVANCED_FACE ( 'NONE', ( #213 ), #287, .F. ) ;
#172 = CARTESIAN_POINT ( 'NONE',  ( 0.0000000000000000000, 20.00000000000000000, 0.0000000000000000000 ) ) ;
#173 = FACE_OUTER_BOUND ( 'NONE', #12, .T. ) ;
#174 = EDGE_LOOP ( 'NONE', ( #177, #103, #156 ) ) ;
#175 = EDGE_CURVE ( 'NONE', #258, #184, #64, .T. ) ;
#176 = SECURITY_CLASSIFICATION_LEVEL ( 'unclassified' ) ;
#177 = ORIENTED_EDGE ( 'NONE', *, *, #175, .F. ) ;
#178 =( NAMED_UNIT ( * ) SI_UNIT ( $, .STERADIAN. ) SOLID_ANGLE_UNIT ( ) );
#179 = CARTESIAN_POINT ( 'NONE',  ( 20.00000000000000000, 20.00000000000000000, 20.00000000000000000 ) ) ;
#180 = COORDINATED_UNIVERSAL_TIME_OFFSET ( 7, 0, .BEHIND. ) ;
#181 = AXIS2_PLACEMENT_3D ( 'NONE', #167, #165, #159 ) ;
#182 = ORIENTED_EDGE ( 'NONE', *, *, #153, .T. ) ;
#183 = APPROVAL_DATE_TIME ( #286, #4 ) ;
#184 = VERTEX_POINT ( 'NONE', #248 ) ;
#185 = ORIENTED_EDGE ( 'NONE', *, *, #301, .F. ) ;
#186 = CARTESIAN_POINT ( 'NONE',  ( 0.0000000000000000000, 0.0000000000000000000, 0.0000000000000000000 ) ) ;
#187 = ORIENTED_EDGE ( 'NONE', *, *, #255, .T. ) ;
#188 = PLANE ( 'NONE',  #181 ) ;
#189 = CARTESIAN_POINT ( 'NONE',  ( 0.0000000000000000000, 0.0000000000000000000, 0.0000000000000000000 ) ) ;
#190 = DIRECTION ( 'NONE',  ( -1.000000000000000000, 0.0000000000000000000, 0.0000000000000000000 ) ) ;
#191 = LOCAL_TIME ( 11, 40, 6.000000000000000000, #180 ) ;
#192 = FACE_OUTER_BOUND ( 'NONE', #107, .T. ) ;
#193 = CARTESIAN_POINT ( 'NONE',  ( 0.0000000000000000000, 0.0000000000000000000, 20.00000000000000000 ) ) ;
#194 = ADVANCED_FACE ( 'NONE', ( #202 ), #277, .F. ) ;
#195 = DIRECTION ( 'NONE',  ( -0.0000000000000000000, -0.0000000000000000000, -1.000000000000000000 ) ) ;
#196 = VECTOR ( 'NONE', #112, 1000.000000000000000 ) ;
#197 = VECTOR ( 'NONE', #302, 1000.000000000000000 ) ;
#198 = EDGE_CURVE ( 'NONE', #278, #95, #132, .T. ) ;
#199 = FACE_OUTER_BOUND ( 'NONE', #280, .T. ) ;
#200 = DATE_AND_TIME ( #54, #191 ) ;
#201 = LOCAL_TIME ( 11, 40, 6.000000000000000000, #58 ) ;
#202 = FACE_OUTER_BOUND ( 'NONE', #41, .T. ) ;
#203 = ORIENTED_EDGE ( 'NONE', *, *, #241, .T. ) ;
#204 = CARTESIAN_POINT ( 'NONE',  ( 0.0000000000000000000, 20.00000000000000000, 20.00000000000000000 ) ) ;
#205 = DATE_AND_TIME ( #60, #3 ) ;
#206 = CARTESIAN_POINT ( 'NONE',  ( 0.0000000000000000000, 20.00000000000000000, 20.00000000000000000 ) ) ;
#207 = DIRECTION ( 'NONE',  ( 0.0000000000000000000, 0.0000000000000000000, -1.000000000000000000 ) ) ;
#208 = ORIENTED_EDGE ( 'NONE', *, *, #198, .F. ) ;
#209 = AXIS2_PLACEMENT_3D ( 'NONE', #238, #221, #215 ) ;
#210 = DIRECTION ( 'NONE',  ( -0.0000000000000000000, -0.0000000000000000000, -1.000000000000000000 ) ) ;
#211 = VECTOR ( 'NONE', #148, 1000.000000000000000 ) ;
#212 = LINE ( 'NONE', #162, #111 ) ;
#213 = FACE_OUTER_BOUND ( 'NONE', #174, .T. ) ;
#214 = LINE ( 'NONE', #66, #92 ) ;
#215 = DIRECTION ( 'NONE',  ( 1.000000000000000000, 0.0000000000000000000, -0.0000000000000000000 ) ) ;
#216 = PLANE ( 'NONE',  #269 ) ;
#217 = ADVANCED_FACE ( 'NONE', ( #163 ), #272, .T. ) ;
#218 = ORIENTED_EDGE ( 'NONE', *, *, #76, .F. ) ;
#219 = LINE ( 'NONE', #119, #196 ) ;
#220 = AXIS2_PLACEMENT_3D ( 'NONE', #268, #246, #245 ) ;
#221 = DIRECTION ( 'NONE',  ( 0.0000000000000000000, 0.0000000000000000000, 1.000000000000000000 ) ) ;
#222 = ORIENTED_EDGE ( 'NONE', *, *, #313, .T. ) ;
#223 = LINE ( 'NONE', #51, #155 ) ;
#224 = PERSON_AND_ORGANIZATION ( #131, #104 ) ;
#225 = APPLICATION_PROTOCOL_DEFINITION ( 'international standard', 'config_control_design', 1994, #38 ) ;
#226 = ORIENTED_EDGE ( 'NONE', *, *, #34, .T. ) ;
#227 = ORIENTED_EDGE ( 'NONE', *, *, #274, .F. ) ;
#228 = DIRECTION ( 'NONE',  ( -0.0000000000000000000, -0.0000000000000000000, -1.000000000000000000 ) ) ;
#229 = LOCAL_TIME ( 11, 40, 6.000000000000000000, #109 ) ;
#230 = PERSON_AND_ORGANIZATION ( #131, #104 ) ;
#231 = UNCERTAINTY_MEASURE_WITH_UNIT (LENGTH_MEASURE( 1.000000000000000100E-005 ), #65, 'distance_accuracy_value', 'NONE');
#232 = AXIS2_PLACEMENT_3D ( 'NONE', #283, #282, #279 ) ;
#233 = ORIENTED_EDGE ( 'NONE', *, *, #128, .T. ) ;
#234 = LOCAL_TIME ( 11, 40, 6.000000000000000000, #114 ) ;
#235 = CARTESIAN_POINT ( 'NONE',  ( 20.00000000000000000, 20.00000000000000000, 20.00000000000000000 ) ) ;
#236 = LINE ( 'NONE', #291, #197 ) ;
#237 = CARTESIAN_POINT ( 'NONE',  ( 20.00000000000000400, -1.836592772309561100E-015, 20.00000000000000000 ) ) ;
#238 = CARTESIAN_POINT ( 'NONE',  ( 0.0000000000000000000, 0.0000000000000000000, 20.00000000000000000 ) ) ;
#239 = MANIFOLD_SOLID_BREP ( 'Boss-Extrude1', #160 ) ;
#240 = ORIENTED_EDGE ( 'NONE', *, *, #301, .T. ) ;
#241 = EDGE_CURVE ( 'NONE', #244, #6, #42, .T. ) ;
#242 = CARTESIAN_POINT ( 'NONE',  ( 20.00000000000000000, 20.00000000000000000, 0.0000000000000000000 ) ) ;
#243 = PLANE ( 'NONE',  #249 ) ;
#244 = VERTEX_POINT ( 'NONE', #204 ) ;
#245 = DIRECTION ( 'NONE',  ( -0.7071067811865474600, -0.7071067811865474600, 0.0000000000000000000 ) ) ;
#246 = DIRECTION ( 'NONE',  ( -0.7071067811865475700, 0.7071067811865475700, 0.0000000000000000000 ) ) ;
#247 = VECTOR ( 'NONE', #312, 1000.000000000000000 ) ;
#248 = CARTESIAN_POINT ( 'NONE',  ( 20.00000000000000400, -1.836592772309561100E-015, 0.0000000000000000000 ) ) ;
#249 = AXIS2_PLACEMENT_3D ( 'NONE', #300, #299, #293 ) ;
#250 = VERTEX_POINT ( 'NONE', #242 ) ;
#251 = VECTOR ( 'NONE', #228, 1000.000000000000000 ) ;
#252 = PERSON_AND_ORGANIZATION_ROLE ( 'classification_officer' ) ;
#253 = LINE ( 'NONE', #106, #261 ) ;
#254 = DIRECTION ( 'NONE',  ( 1.000000000000000000, -9.182963861547803600E-017, -0.0000000000000000000 ) ) ;
#255 = EDGE_CURVE ( 'NONE', #45, #184, #320, .T. ) ;
#256 = VERTEX_POINT ( 'NONE', #193 ) ;
#257 = CARTESIAN_POINT ( 'NONE',  ( 20.00000000000000400, -1.836592772309561100E-015, 0.0000000000000000000 ) ) ;
#258 = VERTEX_POINT ( 'NONE', #189 ) ;
#259 = APPROVAL_ROLE ( '' ) ;
#260 = VECTOR ( 'NONE', #195, 1000.000000000000000 ) ;
#261 = VECTOR ( 'NONE', #98, 1000.000000000000100 ) ;
#262 = AXIS2_PLACEMENT_3D ( 'NONE', #43, #207, #190 ) ;
#263 = APPROVAL_PERSON_ORGANIZATION ( #130, #61, #124 ) ;
#264 = ORIENTED_EDGE ( 'NONE', *, *, #297, .T. ) ;
#265 = ORIENTED_EDGE ( 'NONE', *, *, #53, .T. ) ;
#266 = PRODUCT_DEFINITION_SHAPE ( 'NONE', 'NONE',  #69 ) ;
#267 = ADVANCED_FACE ( 'NONE', ( #81 ), #188, .F. ) ;
#268 = CARTESIAN_POINT ( 'NONE',  ( 20.00000000000000000, 20.00000000000000000, 20.00000000000000000 ) ) ;
#269 = AXIS2_PLACEMENT_3D ( 'NONE', #85, #73, #68 ) ;
#270 = PERSON_AND_ORGANIZATION ( #131, #104 ) ;
#271 = APPROVAL_PERSON_ORGANIZATION ( #31, #4, #259 ) ;
#272 = PLANE ( 'NONE',  #209 ) ;
#273 = EDGE_LOOP ( 'NONE', ( #222, #226, #233 ) ) ;
#274 = EDGE_CURVE ( 'NONE', #256, #288, #19, .T. ) ;
#275 = APPROVAL_STATUS ( 'not_yet_approved' ) ;
#276 = MECHANICAL_CONTEXT ( 'NONE', #295, 'mechanical' ) ;
#277 = PLANE ( 'NONE',  #220 ) ;
#278 = VERTEX_POINT ( 'NONE', #150 ) ;
#279 = DIRECTION ( 'NONE',  ( 1.000000000000000000, 0.0000000000000000000, -0.0000000000000000000 ) ) ;
#280 = EDGE_LOOP ( 'NONE', ( #182, #151, #89, #187 ) ) ;
#281 = ORIENTED_EDGE ( 'NONE', *, *, #121, .T. ) ;
#282 = DIRECTION ( 'NONE',  ( 0.0000000000000000000, 0.0000000000000000000, 1.000000000000000000 ) ) ;
#283 = CARTESIAN_POINT ( 'NONE',  ( 0.0000000000000000000, 0.0000000000000000000, 0.0000000000000000000 ) ) ;
#284 = AXIS2_PLACEMENT_3D ( 'NONE', #179, #136, #118 ) ;
#285 = VECTOR ( 'NONE', #80, 1000.000000000000000 ) ;
#286 = DATE_AND_TIME ( #139, #234 ) ;
#287 = PLANE ( 'NONE',  #232 ) ;
#288 = VERTEX_POINT ( 'NONE', #186 ) ;
#289 = ADVANCED_FACE ( 'NONE', ( #120 ), #142, .T. ) ;
#290 = PRODUCT_RELATED_PRODUCT_CATEGORY ( 'detail', '', ( #105 ) ) ;
#291 = CARTESIAN_POINT ( 'NONE',  ( 20.00000000000000000, 20.00000000000000000, 0.0000000000000000000 ) ) ;
#292 = PERSON_AND_ORGANIZATION ( #131, #104 ) ;
#293 = DIRECTION ( 'NONE',  ( 0.0000000000000000000, -0.0000000000000000000, -1.000000000000000000 ) ) ;
#294 = EDGE_CURVE ( 'NONE', #278, #244, #219, .T. ) ;
#295 = APPLICATION_CONTEXT ( 'configuration controlled 3d designs of mechanical parts and assemblies' ) ;
#296 = COORDINATED_UNIVERSAL_TIME_OFFSET ( 7, 0, .BEHIND. ) ;
#297 = EDGE_CURVE ( 'NONE', #95, #6, #101, .T. ) ;
#298 = SHAPE_DEFINITION_REPRESENTATION ( #266, #55 ) ;
#299 = DIRECTION ( 'NONE',  ( 0.0000000000000000000, -1.000000000000000000, 0.0000000000000000000 ) ) ;
#300 = CARTESIAN_POINT ( 'NONE',  ( 0.0000000000000000000, 20.00000000000000000, 20.00000000000000000 ) ) ;
#301 = EDGE_CURVE ( 'NONE', #256, #278, #253, .T. ) ;
#302 = DIRECTION ( 'NONE',  ( -1.734723475976806800E-016, 1.000000000000000000, -0.0000000000000000000 ) ) ;
#303 = DATE_AND_TIME ( #30, #201 ) ;
#304 = DIRECTION ( 'NONE',  ( -0.7071067811865474600, -0.7071067811865474600, -0.0000000000000000000 ) ) ;
#305 = EDGE_CURVE ( 'NONE', #288, #95, #100, .T. ) ;
#306 = DIRECTION ( 'NONE',  ( -0.0000000000000000000, -1.000000000000000000, -0.0000000000000000000 ) ) ;
#307 = DATE_AND_TIME ( #134, #229 ) ;
#308 = ADVANCED_FACE ( 'NONE', ( #192 ), #127, .F. ) ;
#309 = CARTESIAN_POINT ( 'NONE',  ( 0.0000000000000000000, 0.0000000000000000000, 20.00000000000000000 ) ) ;
#310 = CARTESIAN_POINT ( 'NONE',  ( 0.0000000000000000000, 0.0000000000000000000, 0.0000000000000000000 ) ) ;
#311 = PERSON_AND_ORGANIZATION ( #131, #104 ) ;
#312 = DIRECTION ( 'NONE',  ( -0.0000000000000000000, -1.000000000000000000, -0.0000000000000000000 ) ) ;
#313 = EDGE_CURVE ( 'NONE', #78, #45, #47, .T. ) ;
#314 = DIRECTION ( 'NONE',  ( 1.000000000000000000, 0.0000000000000000000, 0.0000000000000000000 ) ) ;
#315 = CARTESIAN_POINT ( 'NONE',  ( 0.0000000000000000000, 0.0000000000000000000, 20.00000000000000000 ) ) ;
#316 = MANIFOLD_SOLID_BREP ( 'Boss-Extrude2', #133 ) ;
#317 = EDGE_CURVE ( 'NONE', #250, #258, #214, .T. ) ;
#318 = CARTESIAN_POINT ( 'NONE',  ( 20.00000000000000000, 20.00000000000000000, 0.0000000000000000000 ) ) ;
#319 = ORIENTED_EDGE ( 'NONE', *, *, #94, .T. ) ;
#320 = LINE ( 'NONE', #237, #260 ) ;
#321 = DIRECTION ( 'NONE',  ( -0.0000000000000000000, -0.0000000000000000000, -1.000000000000000000 ) ) ;
ENDSEC;
END-ISO-10303-21;
