ISO-10303-21;
HEADER;
FILE_DESCRIPTION (( 'STEP AP203' ),
    '1' );
FILE_NAME ('Web Model 55135_Default.step',
    '2019-10-28T12:52:47',
    ( '' ),
    ( '' ),
    'SwSTEP 2.0',
    'SolidWorks 2018',
    '' );
FILE_SCHEMA (( 'CONFIG_CONTROL_DESIGN' ));
ENDSEC;

DATA;
#1 = CARTESIAN_POINT ( 'NONE',  ( -1.624609862034865460, 14.39571600642556959, 9.879358540005581446 ) ) ;
#2 = ORIENTED_EDGE ( 'NONE', *, *, #148, .F. ) ;
#3 = CARTESIAN_POINT ( 'NONE',  ( -10.00000000000000178, 0.0000000000000000000, 4.415320079384797758 ) ) ;
#4 = CC_DESIGN_PERSON_AND_ORGANIZATION_ASSIGNMENT ( #143, #151, ( #312 ) ) ;
#5 = CARTESIAN_POINT ( 'NONE',  ( -4.201283418381329682E-16, 15.25000000000000000, 6.250000000000000000 ) ) ;
#6 = CARTESIAN_POINT ( 'NONE',  ( 1.262844703064979190E-15, 0.0000000000000000000, -10.00000000000000000 ) ) ;
#7 = PRODUCT_DEFINITION ( 'UNKNOWN', '', #312, #63 ) ;
#8 = CARTESIAN_POINT ( 'NONE',  ( 0.0000000000000000000, 0.0000000000000000000, 0.0000000000000000000 ) ) ;
#9 = CARTESIAN_POINT ( 'NONE',  ( 10.00000000000000000, 14.39555856521648813, -5.519150099231001860 ) ) ;
#10 = FACE_OUTER_BOUND ( 'NONE', #301, .T. ) ;
#11 = CARTESIAN_POINT ( 'NONE',  ( -5.519150099231000084, 0.0000000000000000000, -10.00000000000000000 ) ) ;
#12 = B_SPLINE_SURFACE_WITH_KNOTS ( 'NONE', 3, 3, ( 
 ( #156, #272, #14, #159 ),
 ( #269, #54, #76, #176 ),
 ( #104, #59, #203, #40 ),
 ( #134, #79, #228, #245 ),
 ( #35, #128, #108, #160 ),
 ( #16, #127, #154, #32 ),
 ( #224, #247, #85, #132 ),
 ( #77, #9, #294, #181 ),
 ( #155, #55, #130, #295 ),
 ( #11, #274, #177, #204 ),
 ( #57, #39, #227, #82 ),
 ( #250, #107, #136, #230 ),
 ( #24, #21, #109, #117 ),
 ( #47, #306, #67, #213 ),
 ( #164, #162, #254, #186 ),
 ( #114, #163, #184, #211 ),
 ( #187, #212, #165, #277 ),
 ( #282, #233, #19, #281 ) ),
 .UNSPECIFIED., .T., .F., .F.,
 ( 4, 1, 1, 1, 1, 2, 2, 2, 1, 1, 1, 1, 4 ),
 ( 4, 4 ),
 ( 0.0000000000000000000, 0.01249999999999995559, 0.02499999999999991118, 0.03750000000000008882, 0.05000000000000004441, 0.2500000000000000000, 0.5000000000000000000, 0.7500000000000000000, 0.9499999999999999556, 0.9625000000000000222, 0.9749999999999999778, 0.9875000000000000444, 1.000000000000000000 ),
 ( 0.0000000000000000000, 1.000000000000000000 ),
 .UNSPECIFIED. ) ;
#13 = CALENDAR_DATE ( 2019, 28, 10 ) ;
#14 = CARTESIAN_POINT ( 'NONE',  ( -8.402566836762659364E-16, 12.63261687091009833, 6.250000000000000888 ) ) ;
#15 = PERSON_AND_ORGANIZATION ( #167, #152 ) ;
#16 = CARTESIAN_POINT ( 'NONE',  ( 6.953022067477082402, 0.0000000000000000000, 8.400553528776987022 ) ) ;
#17 = AXIS2_PLACEMENT_3D ( 'NONE', #73, #99, #197 ) ;
#18 = CARTESIAN_POINT ( 'NONE',  ( 0.2759575049615478615, 0.0000000000000000000, 9.999999999999998224 ) ) ;
#19 = CARTESIAN_POINT ( 'NONE',  ( -8.402566836762659364E-16, 12.63261687091009833, 6.250000000000000888 ) ) ;
#20 = SECURITY_CLASSIFICATION ( '', '', #221 ) ;
#21 = CARTESIAN_POINT ( 'NONE',  ( -6.953022067477082402, 14.39575363077615222, 8.400553528776988799 ) ) ;
#22 = FACE_OUTER_BOUND ( 'NONE', #51, .T. ) ;
#23 = CARTESIAN_POINT ( 'NONE',  ( 0.8226810138923360549, 0.0000000000000000000, 9.977595750496153215 ) ) ;
#24 = CARTESIAN_POINT ( 'NONE',  ( -6.953022067477082402, 0.0000000000000000000, 8.400553528776988799 ) ) ;
#25 = CARTESIAN_POINT ( 'NONE',  ( -6.249999999999999112, 12.63262571541522661, -3.449468812019377495 ) ) ;
#26 = CARTESIAN_POINT ( 'NONE',  ( -9.999999999999998224, 14.39555856521648636, -5.519150099231002748 ) ) ;
#27 = APPROVAL_DATE_TIME ( #157, #219 ) ;
#28 =( LENGTH_UNIT ( ) NAMED_UNIT ( * ) SI_UNIT ( .MILLI., .METRE. ) );
#29 = APPLICATION_CONTEXT ( 'configuration controlled 3d designs of mechanical parts and assemblies' ) ;
#30 = CARTESIAN_POINT ( 'NONE',  ( -3.449468812019374830, 15.25000000000000000, -6.250000000000000000 ) ) ;
#31 = CARTESIAN_POINT ( 'NONE',  ( 1.301042606982605321E-15, 14.39560720999445920, -10.00000000000000000 ) ) ;
#32 = CARTESIAN_POINT ( 'NONE',  ( 4.345638792173176945, 15.25000000000000000, 5.250345955485617999 ) ) ;
#33 = AXIS2_PLACEMENT_3D ( 'NONE', #122, #121, #171 ) ;
#34 = CARTESIAN_POINT ( 'NONE',  ( 0.0000000000000000000, 15.25000000000000000, 0.0000000000000000000 ) ) ;
#35 = CARTESIAN_POINT ( 'NONE',  ( 2.405800382646999136, 0.0000000000000000000, 9.719072405556936189 ) ) ;
#36 = CC_DESIGN_PERSON_AND_ORGANIZATION_ASSIGNMENT ( #15, #266, ( #20 ) ) ;
#37 = VERTEX_POINT ( 'NONE', #175 ) ;
#38 = AXIS2_PLACEMENT_3D ( 'NONE', #220, #101, #198 ) ;
#39 = CARTESIAN_POINT ( 'NONE',  ( -9.999999999999998224, 14.39555856521648636, -5.519150099231002748 ) ) ;
#40 = CARTESIAN_POINT ( 'NONE',  ( 0.5141756336827101315, 15.25000000000000000, 6.235997344060096204 ) ) ;
#41 = CARTESIAN_POINT ( 'NONE',  ( -4.201283418381329682E-16, 15.25000000000000000, 6.250000000000000000 ) ) ;
#42 = CARTESIAN_POINT ( 'NONE',  ( -1.273937552670467710E-15, 0.0000000000000000000, 9.999999999999998224 ) ) ;
#43 = ORIENTED_EDGE ( 'NONE', *, *, #75, .T. ) ;
#44 = CARTESIAN_POINT ( 'NONE',  ( 10.00000000000000000, 14.39564612581683889, 4.415320079384800422 ) ) ;
#45 = B_SPLINE_CURVE_WITH_KNOTS ( 'NONE', 3,
 ( #298, #209, #300, #41 ),
 .UNSPECIFIED., .F., .F.,
 ( 4, 4 ),
 ( 0.0000000000000000000, 1.000000000000000000 ),
 .UNSPECIFIED. ) ;
#46 = CARTESIAN_POINT ( 'NONE',  ( 2.405800382646999136, 14.39576816549006821, 9.719072405556936189 ) ) ;
#47 = CARTESIAN_POINT ( 'NONE',  ( -2.405800382647001801, 0.0000000000000000000, 9.719072405556934413 ) ) ;
#48 = CARTESIAN_POINT ( 'NONE',  ( -2.405800382647001801, 14.39576816549006821, 9.719072405556934413 ) ) ;
#49 =( NAMED_UNIT ( * ) PLANE_ANGLE_UNIT ( ) SI_UNIT ( $, .RADIAN. ) );
#50 = CARTESIAN_POINT ( 'NONE',  ( -0.5141756336827132401, 12.63261048038884837, 6.235997344060097092 ) ) ;
#51 = EDGE_LOOP ( 'NONE', ( #43, #178, #105, #60 ) ) ;
#52 = CARTESIAN_POINT ( 'NONE',  ( -8.402566836762659364E-16, 12.63261687091009833, 6.250000000000000888 ) ) ;
#53 = VERTEX_POINT ( 'NONE', #5 ) ;
#54 = CARTESIAN_POINT ( 'NONE',  ( 0.2759575049615478615, 14.39560720999445920, 9.999999999999998224 ) ) ;
#55 = CARTESIAN_POINT ( 'NONE',  ( 5.519150099231002748, 14.39560720999445920, -10.00000000000000000 ) ) ;
#56 = CIRCLE ( 'NONE', #140, 10.00000000000000000 ) ;
#57 = CARTESIAN_POINT ( 'NONE',  ( -9.999999999999998224, 0.0000000000000000000, -5.519150099231002748 ) ) ;
#58 = PRODUCT_RELATED_PRODUCT_CATEGORY ( 'detail', '', ( #62 ) ) ;
#59 = CARTESIAN_POINT ( 'NONE',  ( 0.8226810138923360549, 14.39564235786124868, 9.977595750496153215 ) ) ;
#60 = ORIENTED_EDGE ( 'NONE', *, *, #263, .F. ) ;
#61 = CARTESIAN_POINT ( 'NONE',  ( 4.345638792173176945, 12.63259024894980342, 5.250345955485617999 ) ) ;
#62 = PRODUCT ( 'Web Model 55135_Default', 'Web Model 55135_Default', '', ( #97 ) ) ;
#63 = DESIGN_CONTEXT ( 'detailed design', #166, 'design' ) ;
#64 = CARTESIAN_POINT ( 'NONE',  ( 6.250000000000000888, 12.63262571541515733, -3.449468812019374830 ) ) ;
#65 = APPROVAL ( #142, 'UNSPECIFIED' ) ;
#66 = CARTESIAN_POINT ( 'NONE',  ( 4.345638792173176945, 15.25000000000000000, 5.250345955485617999 ) ) ;
#67 = CARTESIAN_POINT ( 'NONE',  ( -1.503625239154376070, 12.63258760627454436, 6.074420253473086007 ) ) ;
#68 = CARTESIAN_POINT ( 'NONE',  ( -6.953022067477082402, 0.0000000000000000000, 8.400553528776988799 ) ) ;
#69 = PRODUCT_DEFINITION_SHAPE ( 'NONE', 'NONE',  #7 ) ;
#70 = CARTESIAN_POINT ( 'NONE',  ( 5.519150099231002748, 0.0000000000000000000, -10.00000000000000000 ) ) ;
#71 = APPROVAL_ROLE ( '' ) ;
#72 = PERSON_AND_ORGANIZATION_ROLE ( 'design_owner' ) ;
#73 = CARTESIAN_POINT ( 'NONE',  ( 0.0000000000000000000, 15.25000000000000000, 0.0000000000000000000 ) ) ;
#74 = DIRECTION ( 'NONE',  ( 0.0000000000000000000, 0.0000000000000000000, 1.000000000000000000 ) ) ;
#75 = EDGE_CURVE ( 'NONE', #231, #185, #129, .T. ) ;
#76 = CARTESIAN_POINT ( 'NONE',  ( 0.1724734406009673926, 12.63261687091009833, 6.250000000000000888 ) ) ;
#77 = CARTESIAN_POINT ( 'NONE',  ( 10.00000000000000000, 0.0000000000000000000, -5.519150099231000972 ) ) ;
#78 = APPROVAL ( #100, 'UNSPECIFIED' ) ;
#79 = CARTESIAN_POINT ( 'NONE',  ( 1.624609862034863017, 14.39571600642556959, 9.879358540005583222 ) ) ;
#80 = CC_DESIGN_APPROVAL ( #65, ( #312 ) ) ;
#81 = EDGE_LOOP ( 'NONE', ( #126, #286 ) ) ;
#82 = CARTESIAN_POINT ( 'NONE',  ( -6.249999999999999112, 15.25000000000000000, -3.449468812019377051 ) ) ;
#83 = AXIS2_PLACEMENT_3D ( 'NONE', #299, #251, #103 ) ;
#84 = PERSON_AND_ORGANIZATION ( #167, #152 ) ;
#85 = CARTESIAN_POINT ( 'NONE',  ( 6.250000000000000888, 12.63260979530603834, 2.759575049615500930 ) ) ;
#86 = CARTESIAN_POINT ( 'NONE',  ( 6.953022067477082402, 0.0000000000000000000, 8.400553528776987022 ) ) ;
#87 = PERSON_AND_ORGANIZATION ( #167, #152 ) ;
#88 = LOCAL_TIME ( 8, 52, 47.00000000000000000, #292 ) ;
#89 = CARTESIAN_POINT ( 'NONE',  ( 1.015381163771789552, 12.63259708974080198, 6.174599087503488626 ) ) ;
#90 = CARTESIAN_POINT ( 'NONE',  ( -1.273937552670467710E-15, 14.39560720999445920, 9.999999999999998224 ) ) ;
#91 = CARTESIAN_POINT ( 'NONE',  ( -10.00000000000000178, 14.39564612581683534, 4.415320079384797758 ) ) ;
#92 = DATE_AND_TIME ( #135, #202 ) ;
#93 = CARTESIAN_POINT ( 'NONE',  ( -0.2759575049615504150, 14.39560720999445920, 9.999999999999998224 ) ) ;
#94 = DATE_AND_TIME ( #158, #88 ) ;
#95 = CLOSED_SHELL ( 'NONE', ( #258, #124, #217, #288 ) ) ;
#96 = CARTESIAN_POINT ( 'NONE',  ( -0.1724734406009690579, 12.63261687091009833, 6.250000000000000888 ) ) ;
#97 = MECHANICAL_CONTEXT ( 'NONE', #29, 'mechanical' ) ;
#98 = CARTESIAN_POINT ( 'NONE',  ( 3.449468812019376607, 12.63261687091006458, -6.250000000000000888 ) ) ;
#99 = DIRECTION ( 'NONE',  ( 0.0000000000000000000, 1.000000000000000000, 0.0000000000000000000 ) ) ;
#100 = APPROVAL_STATUS ( 'not_yet_approved' ) ;
#101 = DIRECTION ( 'NONE',  ( 0.0000000000000000000, 1.000000000000000000, 0.0000000000000000000 ) ) ;
#102 = CARTESIAN_POINT ( 'NONE',  ( -6.369687763352338550E-16, 0.0000000000000000000, 9.999999999999998224 ) ) ;
#103 = DIRECTION ( 'NONE',  ( 0.0000000000000000000, -0.0000000000000000000, 1.000000000000000000 ) ) ;
#104 = CARTESIAN_POINT ( 'NONE',  ( 0.8226810138923360549, 0.0000000000000000000, 9.977595750496153215 ) ) ;
#105 = ORIENTED_EDGE ( 'NONE', *, *, #216, .F. ) ;
#106 = LOCAL_TIME ( 8, 52, 47.00000000000000000, #210 ) ;
#107 = CARTESIAN_POINT ( 'NONE',  ( -10.00000000000000178, 14.39564612581683534, 4.415320079384797758 ) ) ;
#108 = CARTESIAN_POINT ( 'NONE',  ( 1.503625239154374738, 12.63258760627453370, 6.074420253473084230 ) ) ;
#109 = CARTESIAN_POINT ( 'NONE',  ( -4.345638792173176945, 12.63259024894965243, 5.250345955485617999 ) ) ;
#110 = CARTESIAN_POINT ( 'NONE',  ( 1.503625239154374738, 12.63258760627453370, 6.074420253473084230 ) ) ;
#111 = MANIFOLD_SOLID_BREP ( 'Loft1', #95 ) ;
#112 = B_SPLINE_CURVE_WITH_KNOTS ( 'NONE', 3,
 ( #6, #31, #199, #243 ),
 .UNSPECIFIED., .F., .F.,
 ( 4, 4 ),
 ( 0.0000000000000000000, 1.000000000000000000 ),
 .UNSPECIFIED. ) ;
#113 = ORIENTED_EDGE ( 'NONE', *, *, #263, .T. ) ;
#114 = CARTESIAN_POINT ( 'NONE',  ( -0.8226810138923411619, 0.0000000000000000000, 9.977595750496153215 ) ) ;
#115 = CC_DESIGN_DATE_AND_TIME_ASSIGNMENT ( #92, #244, ( #20 ) ) ;
#116 = CARTESIAN_POINT ( 'NONE',  ( 2.405800382646999136, 0.0000000000000000000, 9.719072405556936189 ) ) ;
#117 = CARTESIAN_POINT ( 'NONE',  ( -4.345638792173176945, 15.25000000000000000, 5.250345955485617999 ) ) ;
#118 = CC_DESIGN_SECURITY_CLASSIFICATION ( #20, ( #312 ) ) ;
#119 = PERSON_AND_ORGANIZATION ( #167, #152 ) ;
#120 = CARTESIAN_POINT ( 'NONE',  ( -0.8226810138923411619, 14.39564235786125224, 9.977595750496153215 ) ) ;
#121 = DIRECTION ( 'NONE',  ( 0.0000000000000000000, 0.0000000000000000000, 1.000000000000000000 ) ) ;
#122 = CARTESIAN_POINT ( 'NONE',  ( 0.0000000000000000000, 0.0000000000000000000, 0.0000000000000000000 ) ) ;
#123 = CARTESIAN_POINT ( 'NONE',  ( 3.449468812019376607, 15.25000000000000000, -6.250000000000000000 ) ) ;
#124 = ADVANCED_FACE ( 'NONE', ( #10 ), #173, .T. ) ;
#125 = CARTESIAN_POINT ( 'NONE',  ( -0.1724734406009690579, 15.25000000000000000, 6.250000000000000000 ) ) ;
#126 = ORIENTED_EDGE ( 'NONE', *, *, #75, .F. ) ;
#127 = CARTESIAN_POINT ( 'NONE',  ( 6.953022067477082402, 14.39575363077615577, 8.400553528776987022 ) ) ;
#128 = CARTESIAN_POINT ( 'NONE',  ( 2.405800382646999136, 14.39576816549006821, 9.719072405556936189 ) ) ;
#129 = CIRCLE ( 'NONE', #249, 10.00000000000000000 ) ;
#130 = CARTESIAN_POINT ( 'NONE',  ( 3.449468812019376607, 12.63261687091006458, -6.250000000000000888 ) ) ;
#131 = SHAPE_DEFINITION_REPRESENTATION ( #69, #232 ) ;
#132 = CARTESIAN_POINT ( 'NONE',  ( 6.250000000000000000, 15.25000000000000000, 2.759575049615500486 ) ) ;
#133 = CC_DESIGN_APPROVAL ( #219, ( #7 ) ) ;
#134 = CARTESIAN_POINT ( 'NONE',  ( 1.624609862034863017, 0.0000000000000000000, 9.879358540005583222 ) ) ;
#135 = CALENDAR_DATE ( 2019, 28, 10 ) ;
#136 = CARTESIAN_POINT ( 'NONE',  ( -6.250000000000000888, 12.63260979530599037, 2.759575049615499154 ) ) ;
#137 = CARTESIAN_POINT ( 'NONE',  ( 6.250000000000000000, 15.25000000000000000, 2.759575049615500486 ) ) ;
#138 = CARTESIAN_POINT ( 'NONE',  ( 0.5141756336827101315, 12.63261048038884304, 6.235997344060096204 ) ) ;
#139 = CARTESIAN_POINT ( 'NONE',  ( 1.624609862034863017, 14.39571600642556959, 9.879358540005583222 ) ) ;
#140 = AXIS2_PLACEMENT_3D ( 'NONE', #183, #271, #276 ) ;
#141 = CARTESIAN_POINT ( 'NONE',  ( -9.999999999999998224, 0.0000000000000000000, -5.519150099231002748 ) ) ;
#142 = APPROVAL_STATUS ( 'not_yet_approved' ) ;
#143 = PERSON_AND_ORGANIZATION ( #167, #152 ) ;
#144 = CARTESIAN_POINT ( 'NONE',  ( -6.250000000000000888, 15.25000000000000000, 2.759575049615499154 ) ) ;
#145 = ORIENTED_EDGE ( 'NONE', *, *, #179, .F. ) ;
#146 = CARTESIAN_POINT ( 'NONE',  ( -6.250000000000000888, 12.63260979530599037, 2.759575049615499154 ) ) ;
#147 = CARTESIAN_POINT ( 'NONE',  ( -0.2759575049615504150, 0.0000000000000000000, 9.999999999999998224 ) ) ;
#148 = EDGE_CURVE ( 'NONE', #37, #53, #252, .T. ) ;
#149 = APPROVAL_DATE_TIME ( #305, #78 ) ;
#150 = FACE_OUTER_BOUND ( 'NONE', #81, .T. ) ;
#151 = PERSON_AND_ORGANIZATION_ROLE ( 'design_supplier' ) ;
#152 = ORGANIZATION ( 'UNSPECIFIED', 'UNSPECIFIED', '' ) ;
#153 = CC_DESIGN_PERSON_AND_ORGANIZATION_ASSIGNMENT ( #119, #238, ( #7 ) ) ;
#154 = CARTESIAN_POINT ( 'NONE',  ( 4.345638792173176945, 12.63259024894980342, 5.250345955485617999 ) ) ;
#155 = CARTESIAN_POINT ( 'NONE',  ( 5.519150099231002748, 0.0000000000000000000, -10.00000000000000000 ) ) ;
#156 = CARTESIAN_POINT ( 'NONE',  ( -1.273937552670467710E-15, 0.0000000000000000000, 9.999999999999998224 ) ) ;
#157 = DATE_AND_TIME ( #248, #307 ) ;
#158 = CALENDAR_DATE ( 2019, 28, 10 ) ;
#159 = CARTESIAN_POINT ( 'NONE',  ( -8.402566836762659364E-16, 15.25000000000000000, 6.250000000000000000 ) ) ;
#160 = CARTESIAN_POINT ( 'NONE',  ( 1.503625239154374738, 15.25000000000000000, 6.074420253473085118 ) ) ;
#161 = CARTESIAN_POINT ( 'NONE',  ( -8.402566836762659364E-16, 12.63261687091009833, 6.250000000000000888 ) ) ;
#162 = CARTESIAN_POINT ( 'NONE',  ( -1.624609862034865460, 14.39571600642556959, 9.879358540005581446 ) ) ;
#163 = CARTESIAN_POINT ( 'NONE',  ( -0.8226810138923411619, 14.39564235786125224, 9.977595750496153215 ) ) ;
#164 = CARTESIAN_POINT ( 'NONE',  ( -1.624609862034865460, 0.0000000000000000000, 9.879358540005581446 ) ) ;
#165 = CARTESIAN_POINT ( 'NONE',  ( -0.1724734406009690579, 12.63261687091009833, 6.250000000000000888 ) ) ;
#166 = APPLICATION_CONTEXT ( 'configuration controlled 3d designs of mechanical parts and assemblies' ) ;
#167 = PERSON ( 'UNSPECIFIED', 'UNSPECIFIED', 'UNSPECIFIED', ('UNSPECIFIED'), ('UNSPECIFIED'), ('UNSPECIFIED') ) ;
#168 = FACE_OUTER_BOUND ( 'NONE', #240, .T. ) ;
#169 = PERSON_AND_ORGANIZATION_ROLE ( 'creator' ) ;
#170 = CARTESIAN_POINT ( 'NONE',  ( -8.402566836762659364E-16, 15.25000000000000000, 6.250000000000000000 ) ) ;
#171 = DIRECTION ( 'NONE',  ( 1.000000000000000000, 0.0000000000000000000, 0.0000000000000000000 ) ) ;
#172 = CARTESIAN_POINT ( 'NONE',  ( -4.345638792173176945, 15.25000000000000000, 5.250345955485617999 ) ) ;
#173 = PLANE ( 'NONE',  #17 ) ;
#174 = DIRECTION ( 'NONE',  ( 0.0000000000000000000, 1.000000000000000000, 0.0000000000000000000 ) ) ;
#175 = CARTESIAN_POINT ( 'NONE',  ( 8.163829937277497032E-16, 15.25000000000000000, -6.250000000000000000 ) ) ;
#176 = CARTESIAN_POINT ( 'NONE',  ( 0.1724734406009673926, 15.25000000000000000, 6.250000000000000000 ) ) ;
#177 = CARTESIAN_POINT ( 'NONE',  ( -3.449468812019374830, 12.63261687091010899, -6.250000000000000888 ) ) ;
#178 = ORIENTED_EDGE ( 'NONE', *, *, #179, .T. ) ;
#179 = EDGE_CURVE ( 'NONE', #185, #37, #112, .T. ) ;
#180 = COORDINATED_UNIVERSAL_TIME_OFFSET ( 5, 0, .BEHIND. ) ;
#181 = CARTESIAN_POINT ( 'NONE',  ( 6.250000000000000000, 15.25000000000000000, -3.449468812019375275 ) ) ;
#182 = CC_DESIGN_DATE_AND_TIME_ASSIGNMENT ( #297, #285, ( #7 ) ) ;
#183 = CARTESIAN_POINT ( 'NONE',  ( 0.0000000000000000000, 0.0000000000000000000, 0.0000000000000000000 ) ) ;
#184 = CARTESIAN_POINT ( 'NONE',  ( -0.5141756336827132401, 12.63261048038884837, 6.235997344060097092 ) ) ;
#185 = VERTEX_POINT ( 'NONE', #241 ) ;
#186 = CARTESIAN_POINT ( 'NONE',  ( -1.015381163771790884, 15.25000000000000000, 6.174599087503489514 ) ) ;
#187 = CARTESIAN_POINT ( 'NONE',  ( -0.2759575049615504150, 0.0000000000000000000, 9.999999999999998224 ) ) ;
#188 = CARTESIAN_POINT ( 'NONE',  ( 0.1724734406009673926, 15.25000000000000000, 6.250000000000000000 ) ) ;
#189 = PERSON_AND_ORGANIZATION ( #167, #152 ) ;
#190 = CARTESIAN_POINT ( 'NONE',  ( 1.624609862034863017, 0.0000000000000000000, 9.879358540005583222 ) ) ;
#191 =( GEOMETRIC_REPRESENTATION_CONTEXT ( 3 ) GLOBAL_UNCERTAINTY_ASSIGNED_CONTEXT ( ( #267 ) ) GLOBAL_UNIT_ASSIGNED_CONTEXT ( ( #28, #49, #218 ) ) REPRESENTATION_CONTEXT ( 'NONE', 'WORKASPACE' ) );
#192 = CARTESIAN_POINT ( 'NONE',  ( -1.273937552670467710E-15, 14.39560720999445920, 9.999999999999998224 ) ) ;
#193 = CARTESIAN_POINT ( 'NONE',  ( -3.449468812019374830, 12.63261687091010899, -6.250000000000000888 ) ) ;
#194 = CARTESIAN_POINT ( 'NONE',  ( -6.249999999999999112, 15.25000000000000000, -3.449468812019377051 ) ) ;
#195 = CARTESIAN_POINT ( 'NONE',  ( 6.250000000000000000, 15.25000000000000000, -3.449468812019375275 ) ) ;
#196 = CARTESIAN_POINT ( 'NONE',  ( -0.8226810138923411619, 0.0000000000000000000, 9.977595750496153215 ) ) ;
#197 = DIRECTION ( 'NONE',  ( 0.0000000000000000000, -0.0000000000000000000, 1.000000000000000000 ) ) ;
#198 = DIRECTION ( 'NONE',  ( 0.0000000000000000000, 0.0000000000000000000, 1.000000000000000000 ) ) ;
#199 = CARTESIAN_POINT ( 'NONE',  ( 8.673617379884035472E-16, 12.63261687091008589, -6.250000000000000888 ) ) ;
#200 = CC_DESIGN_PERSON_AND_ORGANIZATION_ASSIGNMENT ( #207, #169, ( #312 ) ) ;
#201 = DIRECTION ( 'NONE',  ( 0.0000000000000000000, 1.000000000000000000, 0.0000000000000000000 ) ) ;
#202 = LOCAL_TIME ( 8, 52, 47.00000000000000000, #262 ) ;
#203 = CARTESIAN_POINT ( 'NONE',  ( 0.5141756336827101315, 12.63261048038884304, 6.235997344060096204 ) ) ;
#204 = CARTESIAN_POINT ( 'NONE',  ( -3.449468812019374830, 15.25000000000000000, -6.250000000000000000 ) ) ;
#205 = CC_DESIGN_PERSON_AND_ORGANIZATION_ASSIGNMENT ( #214, #72, ( #62 ) ) ;
#206 = PLANE ( 'NONE',  #83 ) ;
#207 = PERSON_AND_ORGANIZATION ( #167, #152 ) ;
#208 = CARTESIAN_POINT ( 'NONE',  ( 0.2759575049615478615, 14.39560720999445920, 9.999999999999998224 ) ) ;
#209 = CARTESIAN_POINT ( 'NONE',  ( -1.273937552670467710E-15, 14.39560720999445920, 9.999999999999998224 ) ) ;
#210 = COORDINATED_UNIVERSAL_TIME_OFFSET ( 5, 0, .BEHIND. ) ;
#211 = CARTESIAN_POINT ( 'NONE',  ( -0.5141756336827132401, 15.25000000000000000, 6.235997344060097092 ) ) ;
#212 = CARTESIAN_POINT ( 'NONE',  ( -0.2759575049615504150, 14.39560720999445920, 9.999999999999998224 ) ) ;
#213 = CARTESIAN_POINT ( 'NONE',  ( -1.503625239154376070, 15.25000000000000000, 6.074420253473086007 ) ) ;
#214 = PERSON_AND_ORGANIZATION ( #167, #152 ) ;
#215 = CARTESIAN_POINT ( 'NONE',  ( -1.503625239154376070, 15.25000000000000000, 6.074420253473086007 ) ) ;
#216 = EDGE_CURVE ( 'NONE', #53, #37, #284, .T. ) ;
#217 = ADVANCED_FACE ( 'NONE', ( #150 ), #206, .F. ) ;
#218 =( NAMED_UNIT ( * ) SI_UNIT ( $, .STERADIAN. ) SOLID_ANGLE_UNIT ( ) );
#219 = APPROVAL ( #260, 'UNSPECIFIED' ) ;
#220 = CARTESIAN_POINT ( 'NONE',  ( 0.0000000000000000000, 15.25000000000000000, 0.0000000000000000000 ) ) ;
#221 = SECURITY_CLASSIFICATION_LEVEL ( 'unclassified' ) ;
#222 = LOCAL_TIME ( 8, 52, 47.00000000000000000, #275 ) ;
#223 = B_SPLINE_SURFACE_WITH_KNOTS ( 'NONE', 3, 3, ( 
 ( #42, #90, #161, #279 ),
 ( #18, #208, #234, #188 ),
 ( #23, #256, #138, #257 ),
 ( #190, #139, #89, #303 ),
 ( #116, #46, #110, #229 ),
 ( #86, #253, #61, #66 ),
 ( #255, #44, #278, #137 ),
 ( #302, #304, #64, #195 ),
 ( #70, #311, #98, #123 ),
 ( #283, #309, #193, #30 ),
 ( #141, #26, #25, #194 ),
 ( #3, #91, #146, #144 ),
 ( #68, #265, #235, #172 ),
 ( #264, #48, #259, #215 ),
 ( #237, #1, #289, #236 ),
 ( #196, #120, #50, #239 ),
 ( #147, #93, #96, #125 ),
 ( #261, #192, #52, #170 ) ),
 .UNSPECIFIED., .T., .F., .F.,
 ( 4, 1, 1, 1, 1, 2, 2, 2, 1, 1, 1, 1, 4 ),
 ( 4, 4 ),
 ( 0.0000000000000000000, 0.01249999999999995559, 0.02499999999999991118, 0.03750000000000008882, 0.05000000000000004441, 0.2500000000000000000, 0.5000000000000000000, 0.7500000000000000000, 0.9499999999999999556, 0.9625000000000000222, 0.9749999999999999778, 0.9875000000000000444, 1.000000000000000000 ),
 ( 0.0000000000000000000, 1.000000000000000000 ),
 .UNSPECIFIED. ) ;
#224 = CARTESIAN_POINT ( 'NONE',  ( 10.00000000000000000, 0.0000000000000000000, 4.415320079384800422 ) ) ;
#225 = EDGE_CURVE ( 'NONE', #185, #231, #56, .T. ) ;
#226 = CALENDAR_DATE ( 2019, 28, 10 ) ;
#227 = CARTESIAN_POINT ( 'NONE',  ( -6.249999999999999112, 12.63262571541522661, -3.449468812019377495 ) ) ;
#228 = CARTESIAN_POINT ( 'NONE',  ( 1.015381163771789552, 12.63259708974080198, 6.174599087503488626 ) ) ;
#229 = CARTESIAN_POINT ( 'NONE',  ( 1.503625239154374738, 15.25000000000000000, 6.074420253473085118 ) ) ;
#230 = CARTESIAN_POINT ( 'NONE',  ( -6.250000000000000888, 15.25000000000000000, 2.759575049615499154 ) ) ;
#231 = VERTEX_POINT ( 'NONE', #102 ) ;
#232 = ADVANCED_BREP_SHAPE_REPRESENTATION ( 'Web Model 55135_Default', ( #111, #33 ), #191 ) ;
#233 = CARTESIAN_POINT ( 'NONE',  ( -1.273937552670467710E-15, 14.39560720999445920, 9.999999999999998224 ) ) ;
#234 = CARTESIAN_POINT ( 'NONE',  ( 0.1724734406009673926, 12.63261687091009833, 6.250000000000000888 ) ) ;
#235 = CARTESIAN_POINT ( 'NONE',  ( -4.345638792173176945, 12.63259024894965243, 5.250345955485617999 ) ) ;
#236 = CARTESIAN_POINT ( 'NONE',  ( -1.015381163771790884, 15.25000000000000000, 6.174599087503489514 ) ) ;
#237 = CARTESIAN_POINT ( 'NONE',  ( -1.624609862034865460, 0.0000000000000000000, 9.879358540005581446 ) ) ;
#238 = PERSON_AND_ORGANIZATION_ROLE ( 'creator' ) ;
#239 = CARTESIAN_POINT ( 'NONE',  ( -0.5141756336827132401, 15.25000000000000000, 6.235997344060097092 ) ) ;
#240 = EDGE_LOOP ( 'NONE', ( #145, #313, #113, #2 ) ) ;
#241 = CARTESIAN_POINT ( 'NONE',  ( 1.262844703064979190E-15, 0.0000000000000000000, -10.00000000000000000 ) ) ;
#242 = APPROVAL_PERSON_ORGANIZATION ( #189, #65, #310 ) ;
#243 = CARTESIAN_POINT ( 'NONE',  ( 8.163829937277497032E-16, 15.25000000000000000, -6.250000000000000000 ) ) ;
#244 = DATE_TIME_ROLE ( 'classification_date' ) ;
#245 = CARTESIAN_POINT ( 'NONE',  ( 1.015381163771789552, 15.25000000000000000, 6.174599087503488626 ) ) ;
#246 = AXIS2_PLACEMENT_3D ( 'NONE', #34, #201, #293 ) ;
#247 = CARTESIAN_POINT ( 'NONE',  ( 10.00000000000000000, 14.39564612581683889, 4.415320079384800422 ) ) ;
#248 = CALENDAR_DATE ( 2019, 28, 10 ) ;
#249 = AXIS2_PLACEMENT_3D ( 'NONE', #8, #174, #74 ) ;
#250 = CARTESIAN_POINT ( 'NONE',  ( -10.00000000000000178, 0.0000000000000000000, 4.415320079384797758 ) ) ;
#251 = DIRECTION ( 'NONE',  ( 0.0000000000000000000, 1.000000000000000000, 0.0000000000000000000 ) ) ;
#252 = CIRCLE ( 'NONE', #38, 6.250000000000000000 ) ;
#253 = CARTESIAN_POINT ( 'NONE',  ( 6.953022067477082402, 14.39575363077615577, 8.400553528776987022 ) ) ;
#254 = CARTESIAN_POINT ( 'NONE',  ( -1.015381163771790884, 12.63259708974080731, 6.174599087503489514 ) ) ;
#255 = CARTESIAN_POINT ( 'NONE',  ( 10.00000000000000000, 0.0000000000000000000, 4.415320079384800422 ) ) ;
#256 = CARTESIAN_POINT ( 'NONE',  ( 0.8226810138923360549, 14.39564235786124868, 9.977595750496153215 ) ) ;
#257 = CARTESIAN_POINT ( 'NONE',  ( 0.5141756336827101315, 15.25000000000000000, 6.235997344060096204 ) ) ;
#258 = ADVANCED_FACE ( 'NONE', ( #22 ), #12, .T. ) ;
#259 = CARTESIAN_POINT ( 'NONE',  ( -1.503625239154376070, 12.63258760627454436, 6.074420253473086007 ) ) ;
#260 = APPROVAL_STATUS ( 'not_yet_approved' ) ;
#261 = CARTESIAN_POINT ( 'NONE',  ( -1.273937552670467710E-15, 0.0000000000000000000, 9.999999999999998224 ) ) ;
#262 = COORDINATED_UNIVERSAL_TIME_OFFSET ( 5, 0, .BEHIND. ) ;
#263 = EDGE_CURVE ( 'NONE', #231, #53, #45, .T. ) ;
#264 = CARTESIAN_POINT ( 'NONE',  ( -2.405800382647001801, 0.0000000000000000000, 9.719072405556934413 ) ) ;
#265 = CARTESIAN_POINT ( 'NONE',  ( -6.953022067477082402, 14.39575363077615222, 8.400553528776988799 ) ) ;
#266 = PERSON_AND_ORGANIZATION_ROLE ( 'classification_officer' ) ;
#267 = UNCERTAINTY_MEASURE_WITH_UNIT (LENGTH_MEASURE( 1.000000000000000082E-05 ), #28, 'distance_accuracy_value', 'NONE');
#268 = CC_DESIGN_APPROVAL ( #78, ( #20 ) ) ;
#269 = CARTESIAN_POINT ( 'NONE',  ( 0.2759575049615478615, 0.0000000000000000000, 9.999999999999998224 ) ) ;
#270 = APPROVAL_DATE_TIME ( #94, #65 ) ;
#271 = DIRECTION ( 'NONE',  ( 0.0000000000000000000, 1.000000000000000000, 0.0000000000000000000 ) ) ;
#272 = CARTESIAN_POINT ( 'NONE',  ( -1.273937552670467710E-15, 14.39560720999445920, 9.999999999999998224 ) ) ;
#273 = APPROVAL_PERSON_ORGANIZATION ( #87, #78, #291 ) ;
#274 = CARTESIAN_POINT ( 'NONE',  ( -5.519150099231000084, 14.39560720999445920, -10.00000000000000000 ) ) ;
#275 = COORDINATED_UNIVERSAL_TIME_OFFSET ( 5, 0, .BEHIND. ) ;
#276 = DIRECTION ( 'NONE',  ( 0.0000000000000000000, 0.0000000000000000000, 1.000000000000000000 ) ) ;
#277 = CARTESIAN_POINT ( 'NONE',  ( -0.1724734406009690579, 15.25000000000000000, 6.250000000000000000 ) ) ;
#278 = CARTESIAN_POINT ( 'NONE',  ( 6.250000000000000888, 12.63260979530603834, 2.759575049615500930 ) ) ;
#279 = CARTESIAN_POINT ( 'NONE',  ( -8.402566836762659364E-16, 15.25000000000000000, 6.250000000000000000 ) ) ;
#280 = APPROVAL_PERSON_ORGANIZATION ( #84, #219, #71 ) ;
#281 = CARTESIAN_POINT ( 'NONE',  ( -8.402566836762659364E-16, 15.25000000000000000, 6.250000000000000000 ) ) ;
#282 = CARTESIAN_POINT ( 'NONE',  ( -1.273937552670467710E-15, 0.0000000000000000000, 9.999999999999998224 ) ) ;
#283 = CARTESIAN_POINT ( 'NONE',  ( -5.519150099231000084, 0.0000000000000000000, -10.00000000000000000 ) ) ;
#284 = CIRCLE ( 'NONE', #246, 6.250000000000000000 ) ;
#285 = DATE_TIME_ROLE ( 'creation_date' ) ;
#286 = ORIENTED_EDGE ( 'NONE', *, *, #225, .F. ) ;
#287 = APPLICATION_PROTOCOL_DEFINITION ( 'international standard', 'config_control_design', 1994, #29 ) ;
#288 = ADVANCED_FACE ( 'NONE', ( #168 ), #223, .T. ) ;
#289 = CARTESIAN_POINT ( 'NONE',  ( -1.015381163771790884, 12.63259708974080731, 6.174599087503489514 ) ) ;
#290 = APPLICATION_PROTOCOL_DEFINITION ( 'international standard', 'config_control_design', 1994, #166 ) ;
#291 = APPROVAL_ROLE ( '' ) ;
#292 = COORDINATED_UNIVERSAL_TIME_OFFSET ( 5, 0, .BEHIND. ) ;
#293 = DIRECTION ( 'NONE',  ( 0.0000000000000000000, 0.0000000000000000000, 1.000000000000000000 ) ) ;
#294 = CARTESIAN_POINT ( 'NONE',  ( 6.250000000000000888, 12.63262571541515733, -3.449468812019374830 ) ) ;
#295 = CARTESIAN_POINT ( 'NONE',  ( 3.449468812019376607, 15.25000000000000000, -6.250000000000000000 ) ) ;
#296 = ORIENTED_EDGE ( 'NONE', *, *, #216, .T. ) ;
#297 = DATE_AND_TIME ( #226, #222 ) ;
#298 = CARTESIAN_POINT ( 'NONE',  ( -6.369687763352338550E-16, 0.0000000000000000000, 9.999999999999998224 ) ) ;
#299 = CARTESIAN_POINT ( 'NONE',  ( 0.0000000000000000000, 0.0000000000000000000, 0.0000000000000000000 ) ) ;
#300 = CARTESIAN_POINT ( 'NONE',  ( -8.402566836762659364E-16, 12.63261687091009833, 6.250000000000000888 ) ) ;
#301 = EDGE_LOOP ( 'NONE', ( #296, #308 ) ) ;
#302 = CARTESIAN_POINT ( 'NONE',  ( 10.00000000000000000, 0.0000000000000000000, -5.519150099231000972 ) ) ;
#303 = CARTESIAN_POINT ( 'NONE',  ( 1.015381163771789552, 15.25000000000000000, 6.174599087503488626 ) ) ;
#304 = CARTESIAN_POINT ( 'NONE',  ( 10.00000000000000000, 14.39555856521648813, -5.519150099231001860 ) ) ;
#305 = DATE_AND_TIME ( #13, #106 ) ;
#306 = CARTESIAN_POINT ( 'NONE',  ( -2.405800382647001801, 14.39576816549006821, 9.719072405556934413 ) ) ;
#307 = LOCAL_TIME ( 8, 52, 47.00000000000000000, #180 ) ;
#308 = ORIENTED_EDGE ( 'NONE', *, *, #148, .T. ) ;
#309 = CARTESIAN_POINT ( 'NONE',  ( -5.519150099231000084, 14.39560720999445920, -10.00000000000000000 ) ) ;
#310 = APPROVAL_ROLE ( '' ) ;
#311 = CARTESIAN_POINT ( 'NONE',  ( 5.519150099231002748, 14.39560720999445920, -10.00000000000000000 ) ) ;
#312 = PRODUCT_DEFINITION_FORMATION_WITH_SPECIFIED_SOURCE ( 'ANY', '', #62, .NOT_KNOWN. ) ;
#313 = ORIENTED_EDGE ( 'NONE', *, *, #225, .T. ) ;
ENDSEC;
END-ISO-10303-21;
