ISO-10303-21;
HEADER;
FILE_DESCRIPTION (( 'STEP AP203' ),
    '1' );
FILE_NAME ('Web Model 46457_46457.step',
    '2018-03-15T18:31:09',
    ( '' ),
    ( '' ),
    'SwSTEP 2.0',
    'SolidWorks 2016',
    '' );
FILE_SCHEMA (( 'CONFIG_CONTROL_DESIGN' ));
ENDSEC;

DATA;
#1 = DIRECTION ( 'NONE',  ( 0.0000000000000000000, 0.0000000000000000000, -1.000000000000000000 ) ) ;
#2 = APPROVAL ( #108, 'UNSPECIFIED' ) ;
#3 = DIRECTION ( 'NONE',  ( 1.000000000000000000, 0.0000000000000000000, 0.0000000000000000000 ) ) ;
#4 = DESIGN_CONTEXT ( 'detailed design', #134, 'design' ) ;
#5 = DIRECTION ( 'NONE',  ( 0.0000000000000000000, 0.0000000000000000000, -1.000000000000000000 ) ) ;
#6 = LOCAL_TIME ( 14, 31, 9.000000000000000000, #41 ) ;
#7 = AXIS2_PLACEMENT_3D ( 'NONE', #92, #114, #128 ) ;
#8 = APPROVAL_PERSON_ORGANIZATION ( #123, #56, #125 ) ;
#9 = ORIENTED_EDGE ( 'NONE', *, *, #36, .F. ) ;
#10 = CC_DESIGN_APPROVAL ( #2, ( #141 ) ) ;
#11 = SECURITY_CLASSIFICATION_LEVEL ( 'unclassified' ) ;
#12 = PERSON_AND_ORGANIZATION ( #115, #62 ) ;
#13 = DATE_AND_TIME ( #146, #93 ) ;
#14 = DIRECTION ( 'NONE',  ( 1.000000000000000000, 0.0000000000000000000, 0.0000000000000000000 ) ) ;
#15 = FACE_OUTER_BOUND ( 'NONE', #50, .T. ) ;
#16 = AXIS2_PLACEMENT_3D ( 'NONE', #119, #22, #18 ) ;
#17 = AXIS2_PLACEMENT_3D ( 'NONE', #73, #14, #1 ) ;
#18 = DIRECTION ( 'NONE',  ( 0.0000000000000000000, 0.0000000000000000000, -1.000000000000000000 ) ) ;
#19 = PERSON_AND_ORGANIZATION ( #115, #62 ) ;
#20 = DIRECTION ( 'NONE',  ( 0.0000000000000000000, 0.0000000000000000000, -1.000000000000000000 ) ) ;
#21 = ADVANCED_BREP_SHAPE_REPRESENTATION ( 'Web Model 46457_46457', ( #121, #75 ), #48 ) ;
#22 = DIRECTION ( 'NONE',  ( 1.000000000000000000, 0.0000000000000000000, 0.0000000000000000000 ) ) ;
#23 = COORDINATED_UNIVERSAL_TIME_OFFSET ( 5, 0, .BEHIND. ) ;
#24 = CC_DESIGN_PERSON_AND_ORGANIZATION_ASSIGNMENT ( #12, #33, ( #47 ) ) ;
#25 = ORIENTED_EDGE ( 'NONE', *, *, #30, .F. ) ;
#26 = AXIS2_PLACEMENT_3D ( 'NONE', #88, #113, #38 ) ;
#27 = ADVANCED_FACE ( 'NONE', ( #55 ), #54, .T. ) ;
#28 = PERSON_AND_ORGANIZATION ( #115, #62 ) ;
#29 = VERTEX_POINT ( 'NONE', #109 ) ;
#30 = EDGE_CURVE ( 'NONE', #111, #42, #127, .T. ) ;
#31 = LINE ( 'NONE', #82, #100 ) ;
#32 = AXIS2_PLACEMENT_3D ( 'NONE', #76, #140, #5 ) ;
#33 = PERSON_AND_ORGANIZATION_ROLE ( 'creator' ) ;
#34 = PERSON_AND_ORGANIZATION ( #115, #62 ) ;
#35 = PERSON_AND_ORGANIZATION ( #115, #62 ) ;
#36 = EDGE_CURVE ( 'NONE', #129, #29, #87, .T. ) ;
#37 = CC_DESIGN_SECURITY_CLASSIFICATION ( #132, ( #47 ) ) ;
#38 = DIRECTION ( 'NONE',  ( 0.0000000000000000000, 0.0000000000000000000, -1.000000000000000000 ) ) ;
#39 = CC_DESIGN_PERSON_AND_ORGANIZATION_ASSIGNMENT ( #161, #160, ( #141 ) ) ;
#40 = PRODUCT_DEFINITION_SHAPE ( 'NONE', 'NONE',  #141 ) ;
#41 = COORDINATED_UNIVERSAL_TIME_OFFSET ( 5, 0, .BEHIND. ) ;
#42 = VERTEX_POINT ( 'NONE', #147 ) ;
#43 =( LENGTH_UNIT ( ) NAMED_UNIT ( * ) SI_UNIT ( .MILLI., .METRE. ) );
#44 = CARTESIAN_POINT ( 'NONE',  ( 0.7500000000000000000, 7.776507174585692200E-016, -6.349999999999999600 ) ) ;
#45 = ORIENTED_EDGE ( 'NONE', *, *, #154, .F. ) ;
#46 = PRODUCT ( 'Web Model 46457_46457', 'Web Model 46457_46457', '', ( #104 ) ) ;
#47 = PRODUCT_DEFINITION_FORMATION_WITH_SPECIFIED_SOURCE ( 'ANY', '', #46, .NOT_KNOWN. ) ;
#48 =( GEOMETRIC_REPRESENTATION_CONTEXT ( 3 ) GLOBAL_UNCERTAINTY_ASSIGNED_CONTEXT ( ( #118 ) ) GLOBAL_UNIT_ASSIGNED_CONTEXT ( ( #43, #57, #130 ) ) REPRESENTATION_CONTEXT ( 'NONE', 'WORKASPACE' ) );
#49 = CARTESIAN_POINT ( 'NONE',  ( 0.7500000000000000000, 0.0000000000000000000, 0.0000000000000000000 ) ) ;
#50 = EDGE_LOOP ( 'NONE', ( #101, #25 ) ) ;
#51 = CC_DESIGN_DATE_AND_TIME_ASSIGNMENT ( #13, #171, ( #141 ) ) ;
#52 = APPROVAL_DATE_TIME ( #148, #157 ) ;
#53 = SHAPE_DEFINITION_REPRESENTATION ( #40, #21 ) ;
#54 = CYLINDRICAL_SURFACE ( 'NONE', #169, 6.349999999999999600 ) ;
#55 = FACE_OUTER_BOUND ( 'NONE', #135, .T. ) ;
#56 = APPROVAL ( #172, 'UNSPECIFIED' ) ;
#57 =( NAMED_UNIT ( * ) PLANE_ANGLE_UNIT ( ) SI_UNIT ( $, .RADIAN. ) );
#58 = DATE_AND_TIME ( #89, #107 ) ;
#59 = DIRECTION ( 'NONE',  ( 0.0000000000000000000, 0.0000000000000000000, 1.000000000000000000 ) ) ;
#60 = AXIS2_PLACEMENT_3D ( 'NONE', #120, #144, #59 ) ;
#61 = CARTESIAN_POINT ( 'NONE',  ( -0.7500000000000000000, 7.776507174585692200E-016, -6.349999999999999600 ) ) ;
#62 = ORGANIZATION ( 'UNSPECIFIED', 'UNSPECIFIED', '' ) ;
#63 = EDGE_LOOP ( 'NONE', ( #74, #152 ) ) ;
#64 = EDGE_CURVE ( 'NONE', #42, #111, #150, .T. ) ;
#65 = APPLICATION_CONTEXT ( 'configuration controlled 3d designs of mechanical parts and assemblies' ) ;
#66 = APPROVAL_ROLE ( '' ) ;
#67 = COORDINATED_UNIVERSAL_TIME_OFFSET ( 5, 0, .BEHIND. ) ;
#68 = DIRECTION ( 'NONE',  ( 1.000000000000000000, 0.0000000000000000000, 0.0000000000000000000 ) ) ;
#69 = APPROVAL_ROLE ( '' ) ;
#70 = DIRECTION ( 'NONE',  ( 0.0000000000000000000, 0.0000000000000000000, 1.000000000000000000 ) ) ;
#71 = PERSON_AND_ORGANIZATION ( #115, #62 ) ;
#72 = DATE_AND_TIME ( #103, #6 ) ;
#73 = CARTESIAN_POINT ( 'NONE',  ( -0.7500000000000000000, 0.0000000000000000000, 0.0000000000000000000 ) ) ;
#74 = ORIENTED_EDGE ( 'NONE', *, *, #99, .T. ) ;
#75 = AXIS2_PLACEMENT_3D ( 'NONE', #168, #80, #68 ) ;
#76 = CARTESIAN_POINT ( 'NONE',  ( -0.7500000000000000000, 0.0000000000000000000, 0.0000000000000000000 ) ) ;
#77 = VECTOR ( 'NONE', #133, 1000.000000000000000 ) ;
#78 = PRODUCT_RELATED_PRODUCT_CATEGORY ( 'detail', '', ( #46 ) ) ;
#79 = CC_DESIGN_APPROVAL ( #56, ( #47 ) ) ;
#80 = DIRECTION ( 'NONE',  ( 0.0000000000000000000, 0.0000000000000000000, 1.000000000000000000 ) ) ;
#81 = CC_DESIGN_APPROVAL ( #157, ( #132 ) ) ;
#82 = CARTESIAN_POINT ( 'NONE',  ( 0.7500000000000000000, 0.0000000000000000000, 6.349999999999999600 ) ) ;
#83 = CALENDAR_DATE ( 2018, 15, 3 ) ;
#84 = ORIENTED_EDGE ( 'NONE', *, *, #163, .F. ) ;
#85 = PERSON_AND_ORGANIZATION_ROLE ( 'classification_officer' ) ;
#86 = CC_DESIGN_PERSON_AND_ORGANIZATION_ASSIGNMENT ( #28, #136, ( #46 ) ) ;
#87 = CIRCLE ( 'NONE', #106, 6.349999999999999600 ) ;
#88 = CARTESIAN_POINT ( 'NONE',  ( 0.7500000000000000000, 0.0000000000000000000, 0.0000000000000000000 ) ) ;
#89 = CALENDAR_DATE ( 2018, 15, 3 ) ;
#90 = FACE_OUTER_BOUND ( 'NONE', #162, .T. ) ;
#91 = ORIENTED_EDGE ( 'NONE', *, *, #163, .T. ) ;
#92 = CARTESIAN_POINT ( 'NONE',  ( -0.7500000000000000000, 0.0000000000000000000, 0.0000000000000000000 ) ) ;
#93 = LOCAL_TIME ( 14, 31, 9.000000000000000000, #67 ) ;
#94 = ORIENTED_EDGE ( 'NONE', *, *, #154, .T. ) ;
#95 = APPLICATION_PROTOCOL_DEFINITION ( 'international standard', 'config_control_design', 1994, #65 ) ;
#96 = APPROVAL_STATUS ( 'not_yet_approved' ) ;
#97 = DIRECTION ( 'NONE',  ( -1.000000000000000000, -0.0000000000000000000, -0.0000000000000000000 ) ) ;
#98 = CLOSED_SHELL ( 'NONE', ( #156, #27, #143, #102 ) ) ;
#99 = EDGE_CURVE ( 'NONE', #29, #129, #117, .T. ) ;
#100 = VECTOR ( 'NONE', #166, 1000.000000000000000 ) ;
#101 = ORIENTED_EDGE ( 'NONE', *, *, #64, .F. ) ;
#102 = ADVANCED_FACE ( 'NONE', ( #15 ), #164, .F. ) ;
#103 = CALENDAR_DATE ( 2018, 15, 3 ) ;
#104 = MECHANICAL_CONTEXT ( 'NONE', #65, 'mechanical' ) ;
#105 = APPLICATION_PROTOCOL_DEFINITION ( 'international standard', 'config_control_design', 1994, #134 ) ;
#106 = AXIS2_PLACEMENT_3D ( 'NONE', #49, #3, #20 ) ;
#107 = LOCAL_TIME ( 14, 31, 9.000000000000000000, #23 ) ;
#108 = APPROVAL_STATUS ( 'not_yet_approved' ) ;
#109 = CARTESIAN_POINT ( 'NONE',  ( 0.7500000000000000000, 0.0000000000000000000, 6.349999999999999600 ) ) ;
#110 = CYLINDRICAL_SURFACE ( 'NONE', #60, 6.349999999999999600 ) ;
#111 = VERTEX_POINT ( 'NONE', #61 ) ;
#112 = PLANE ( 'NONE',  #26 ) ;
#113 = DIRECTION ( 'NONE',  ( 1.000000000000000000, 0.0000000000000000000, 0.0000000000000000000 ) ) ;
#114 = DIRECTION ( 'NONE',  ( 1.000000000000000000, 0.0000000000000000000, 0.0000000000000000000 ) ) ;
#115 = PERSON ( 'UNSPECIFIED', 'UNSPECIFIED', 'UNSPECIFIED', ('UNSPECIFIED'), ('UNSPECIFIED'), ('UNSPECIFIED') ) ;
#116 = LOCAL_TIME ( 14, 31, 9.000000000000000000, #149 ) ;
#117 = CIRCLE ( 'NONE', #16, 6.349999999999999600 ) ;
#118 = UNCERTAINTY_MEASURE_WITH_UNIT (LENGTH_MEASURE( 1.000000000000000100E-005 ), #43, 'distance_accuracy_value', 'NONE');
#119 = CARTESIAN_POINT ( 'NONE',  ( 0.7500000000000000000, 0.0000000000000000000, 0.0000000000000000000 ) ) ;
#120 = CARTESIAN_POINT ( 'NONE',  ( 0.7500000000000000000, 0.0000000000000000000, 0.0000000000000000000 ) ) ;
#121 = MANIFOLD_SOLID_BREP ( 'Boss-Extrude1', #98 ) ;
#122 = LOCAL_TIME ( 14, 31, 9.000000000000000000, #155 ) ;
#123 = PERSON_AND_ORGANIZATION ( #115, #62 ) ;
#124 = PERSON_AND_ORGANIZATION_ROLE ( 'design_supplier' ) ;
#125 = APPROVAL_ROLE ( '' ) ;
#126 = CC_DESIGN_PERSON_AND_ORGANIZATION_ASSIGNMENT ( #71, #124, ( #47 ) ) ;
#127 = CIRCLE ( 'NONE', #17, 6.349999999999999600 ) ;
#128 = DIRECTION ( 'NONE',  ( 0.0000000000000000000, 0.0000000000000000000, -1.000000000000000000 ) ) ;
#129 = VERTEX_POINT ( 'NONE', #153 ) ;
#130 =( NAMED_UNIT ( * ) SI_UNIT ( $, .STERADIAN. ) SOLID_ANGLE_UNIT ( ) );
#131 = APPROVAL_PERSON_ORGANIZATION ( #19, #157, #69 ) ;
#132 = SECURITY_CLASSIFICATION ( '', '', #11 ) ;
#133 = DIRECTION ( 'NONE',  ( -1.000000000000000000, -0.0000000000000000000, -0.0000000000000000000 ) ) ;
#134 = APPLICATION_CONTEXT ( 'configuration controlled 3d designs of mechanical parts and assemblies' ) ;
#135 = EDGE_LOOP ( 'NONE', ( #45, #145, #91, #170 ) ) ;
#136 = PERSON_AND_ORGANIZATION_ROLE ( 'design_owner' ) ;
#137 = DATE_AND_TIME ( #83, #116 ) ;
#138 = CC_DESIGN_PERSON_AND_ORGANIZATION_ASSIGNMENT ( #34, #85, ( #132 ) ) ;
#139 = APPROVAL_PERSON_ORGANIZATION ( #35, #2, #66 ) ;
#140 = DIRECTION ( 'NONE',  ( 1.000000000000000000, 0.0000000000000000000, 0.0000000000000000000 ) ) ;
#141 = PRODUCT_DEFINITION ( 'UNKNOWN', '', #47, #4 ) ;
#142 = APPROVAL_DATE_TIME ( #137, #56 ) ;
#143 = ADVANCED_FACE ( 'NONE', ( #174 ), #112, .T. ) ;
#144 = DIRECTION ( 'NONE',  ( -1.000000000000000000, -0.0000000000000000000, -0.0000000000000000000 ) ) ;
#145 = ORIENTED_EDGE ( 'NONE', *, *, #99, .F. ) ;
#146 = CALENDAR_DATE ( 2018, 15, 3 ) ;
#147 = CARTESIAN_POINT ( 'NONE',  ( -0.7500000000000000000, 0.0000000000000000000, 6.349999999999999600 ) ) ;
#148 = DATE_AND_TIME ( #151, #122 ) ;
#149 = COORDINATED_UNIVERSAL_TIME_OFFSET ( 5, 0, .BEHIND. ) ;
#150 = CIRCLE ( 'NONE', #7, 6.349999999999999600 ) ;
#151 = CALENDAR_DATE ( 2018, 15, 3 ) ;
#152 = ORIENTED_EDGE ( 'NONE', *, *, #36, .T. ) ;
#153 = CARTESIAN_POINT ( 'NONE',  ( 0.7500000000000000000, 7.776507174585692200E-016, -6.349999999999999600 ) ) ;
#154 = EDGE_CURVE ( 'NONE', #129, #111, #167, .T. ) ;
#155 = COORDINATED_UNIVERSAL_TIME_OFFSET ( 5, 0, .BEHIND. ) ;
#156 = ADVANCED_FACE ( 'NONE', ( #90 ), #110, .T. ) ;
#157 = APPROVAL ( #96, 'UNSPECIFIED' ) ;
#158 = CC_DESIGN_DATE_AND_TIME_ASSIGNMENT ( #58, #173, ( #132 ) ) ;
#159 = ORIENTED_EDGE ( 'NONE', *, *, #30, .T. ) ;
#160 = PERSON_AND_ORGANIZATION_ROLE ( 'creator' ) ;
#161 = PERSON_AND_ORGANIZATION ( #115, #62 ) ;
#162 = EDGE_LOOP ( 'NONE', ( #9, #94, #159, #84 ) ) ;
#163 = EDGE_CURVE ( 'NONE', #29, #42, #31, .T. ) ;
#164 = PLANE ( 'NONE',  #32 ) ;
#165 = APPROVAL_DATE_TIME ( #72, #2 ) ;
#166 = DIRECTION ( 'NONE',  ( -1.000000000000000000, -0.0000000000000000000, -0.0000000000000000000 ) ) ;
#167 = LINE ( 'NONE', #44, #77 ) ;
#168 = CARTESIAN_POINT ( 'NONE',  ( 0.0000000000000000000, 0.0000000000000000000, 0.0000000000000000000 ) ) ;
#169 = AXIS2_PLACEMENT_3D ( 'NONE', #175, #97, #70 ) ;
#170 = ORIENTED_EDGE ( 'NONE', *, *, #64, .T. ) ;
#171 = DATE_TIME_ROLE ( 'creation_date' ) ;
#172 = APPROVAL_STATUS ( 'not_yet_approved' ) ;
#173 = DATE_TIME_ROLE ( 'classification_date' ) ;
#174 = FACE_OUTER_BOUND ( 'NONE', #63, .T. ) ;
#175 = CARTESIAN_POINT ( 'NONE',  ( 0.7500000000000000000, 0.0000000000000000000, 0.0000000000000000000 ) ) ;
ENDSEC;
END-ISO-10303-21;
