ISO-10303-21;
HEADER;
FILE_DESCRIPTION (( 'STEP AP203' ),
    '1' );
FILE_NAME ('Web Model 68268_46584.step',
    '2017-04-12T16:06:42',
    ( '' ),
    ( '' ),
    'SwSTEP 2.0',
    'SolidWorks 2016',
    '' );
FILE_SCHEMA (( 'CONFIG_CONTROL_DESIGN' ));
ENDSEC;

DATA;
#1 = APPLICATION_PROTOCOL_DEFINITION ( 'international standard', 'config_control_design', 1994, #116 ) ;
#2 = DIRECTION ( 'NONE',  ( 0.0000000000000000000, 0.0000000000000000000, 1.000000000000000000 ) ) ;
#3 =( NAMED_UNIT ( * ) PLANE_ANGLE_UNIT ( ) SI_UNIT ( $, .RADIAN. ) );
#4 = VERTEX_POINT ( 'NONE', #113 ) ;
#5 = SECURITY_CLASSIFICATION_LEVEL ( 'unclassified' ) ;
#6 = LINE ( 'NONE', #172, #180 ) ;
#7 = FACE_OUTER_BOUND ( 'NONE', #174, .T. ) ;
#8 = CARTESIAN_POINT ( 'NONE',  ( -127.0000000000000300, -177.9999999999999700, 0.0000000000000000000 ) ) ;
#9 = ORIENTED_EDGE ( 'NONE', *, *, #93, .T. ) ;
#10 = APPROVAL_DATE_TIME ( #34, #17 ) ;
#11 = APPROVAL_ROLE ( '' ) ;
#12 = ORIENTED_EDGE ( 'NONE', *, *, #204, .T. ) ;
#13 = APPLICATION_CONTEXT ( 'configuration controlled 3d designs of mechanical parts and assemblies' ) ;
#14 = LINE ( 'NONE', #50, #226 ) ;
#15 = APPROVAL_DATE_TIME ( #179, #131 ) ;
#16 = PLANE ( 'NONE',  #48 ) ;
#17 = APPROVAL ( #144, 'UNSPECIFIED' ) ;
#18 = ORIENTED_EDGE ( 'NONE', *, *, #89, .T. ) ;
#19 = LINE ( 'NONE', #96, #36 ) ;
#20 = EDGE_LOOP ( 'NONE', ( #115, #55, #153, #161 ) ) ;
#21 = APPROVAL_ROLE ( '' ) ;
#22 = DIRECTION ( 'NONE',  ( 1.000000000000000000, 0.0000000000000000000, 0.0000000000000000000 ) ) ;
#23 = FACE_OUTER_BOUND ( 'NONE', #157, .T. ) ;
#24 = CARTESIAN_POINT ( 'NONE',  ( -127.0000000000000300, -177.9999999999999700, 3.000000000000000000 ) ) ;
#25 = EDGE_CURVE ( 'NONE', #88, #53, #233, .T. ) ;
#26 = CC_DESIGN_SECURITY_CLASSIFICATION ( #52, ( #85 ) ) ;
#27 = ORIENTED_EDGE ( 'NONE', *, *, #90, .F. ) ;
#28 = COORDINATED_UNIVERSAL_TIME_OFFSET ( 5, 0, .BEHIND. ) ;
#29 = PERSON_AND_ORGANIZATION_ROLE ( 'creator' ) ;
#30 = AXIS2_PLACEMENT_3D ( 'NONE', #8, #82, #78 ) ;
#31 = DATE_TIME_ROLE ( 'classification_date' ) ;
#32 = EDGE_CURVE ( 'NONE', #53, #196, #70, .T. ) ;
#33 = LINE ( 'NONE', #75, #195 ) ;
#34 = DATE_AND_TIME ( #176, #100 ) ;
#35 = APPROVAL_DATE_TIME ( #40, #162 ) ;
#36 = VECTOR ( 'NONE', #107, 1000.000000000000000 ) ;
#37 = CARTESIAN_POINT ( 'NONE',  ( 126.9999999999999100, 178.0000000000000300, 3.000000000000000000 ) ) ;
#38 = CC_DESIGN_PERSON_AND_ORGANIZATION_ASSIGNMENT ( #91, #133, ( #52 ) ) ;
#39 = PERSON_AND_ORGANIZATION_ROLE ( 'creator' ) ;
#40 = DATE_AND_TIME ( #64, #207 ) ;
#41 = CARTESIAN_POINT ( 'NONE',  ( -127.0000000000000900, 178.0000000000000300, 3.000000000000000000 ) ) ;
#42 = PERSON_AND_ORGANIZATION ( #215, #200 ) ;
#43 = DIRECTION ( 'NONE',  ( -1.000000000000000000, -1.559302000878029000E-016, 0.0000000000000000000 ) ) ;
#44 = VECTOR ( 'NONE', #71, 1000.000000000000000 ) ;
#45 = DATE_AND_TIME ( #77, #95 ) ;
#46 = ORIENTED_EDGE ( 'NONE', *, *, #89, .F. ) ;
#47 = LINE ( 'NONE', #124, #237 ) ;
#48 = AXIS2_PLACEMENT_3D ( 'NONE', #37, #43, #87 ) ;
#49 = CC_DESIGN_APPROVAL ( #131, ( #228 ) ) ;
#50 = CARTESIAN_POINT ( 'NONE',  ( -127.0000000000000900, 178.0000000000000300, 3.000000000000000000 ) ) ;
#51 = EDGE_CURVE ( 'NONE', #236, #92, #14, .T. ) ;
#52 = SECURITY_CLASSIFICATION ( '', '', #5 ) ;
#53 = VERTEX_POINT ( 'NONE', #80 ) ;
#54 = ORIENTED_EDGE ( 'NONE', *, *, #90, .T. ) ;
#55 = ORIENTED_EDGE ( 'NONE', *, *, #219, .F. ) ;
#56 = DIRECTION ( 'NONE',  ( -1.559302000878029000E-016, 1.000000000000000000, -0.0000000000000000000 ) ) ;
#57 = DATE_TIME_ROLE ( 'creation_date' ) ;
#58 = EDGE_CURVE ( 'NONE', #158, #236, #202, .T. ) ;
#59 = ORIENTED_EDGE ( 'NONE', *, *, #51, .T. ) ;
#60 = VERTEX_POINT ( 'NONE', #83 ) ;
#61 = ADVANCED_BREP_SHAPE_REPRESENTATION ( 'Web Model 68268_46584', ( #234, #194 ), #130 ) ;
#62 = CC_DESIGN_APPROVAL ( #17, ( #52 ) ) ;
#63 = DIRECTION ( 'NONE',  ( -0.0000000000000000000, -0.0000000000000000000, -1.000000000000000000 ) ) ;
#64 = CALENDAR_DATE ( 2017, 12, 4 ) ;
#65 = FACE_OUTER_BOUND ( 'NONE', #235, .T. ) ;
#66 = DIRECTION ( 'NONE',  ( 1.559302000878029000E-016, -1.000000000000000000, 0.0000000000000000000 ) ) ;
#67 = LOCAL_TIME ( 12, 6, 42.00000000000000000, #181 ) ;
#68 = CARTESIAN_POINT ( 'NONE',  ( 126.9999999999999100, 178.0000000000000300, 0.0000000000000000000 ) ) ;
#69 = DIRECTION ( 'NONE',  ( -0.0000000000000000000, 0.0000000000000000000, 1.000000000000000000 ) ) ;
#70 = LINE ( 'NONE', #123, #208 ) ;
#71 = DIRECTION ( 'NONE',  ( -0.0000000000000000000, -0.0000000000000000000, -1.000000000000000000 ) ) ;
#72 = FACE_OUTER_BOUND ( 'NONE', #164, .T. ) ;
#73 = APPLICATION_PROTOCOL_DEFINITION ( 'international standard', 'config_control_design', 1994, #13 ) ;
#74 = CARTESIAN_POINT ( 'NONE',  ( -127.0000000000000900, 178.0000000000000300, 3.000000000000000000 ) ) ;
#75 = CARTESIAN_POINT ( 'NONE',  ( 126.9999999999999100, 178.0000000000000300, 3.000000000000000000 ) ) ;
#76 = FACE_OUTER_BOUND ( 'NONE', #20, .T. ) ;
#77 = CALENDAR_DATE ( 2017, 12, 4 ) ;
#78 = DIRECTION ( 'NONE',  ( 1.000000000000000000, 0.0000000000000000000, 0.0000000000000000000 ) ) ;
#79 = AXIS2_PLACEMENT_3D ( 'NONE', #190, #139, #84 ) ;
#80 = CARTESIAN_POINT ( 'NONE',  ( 126.9999999999999700, -177.9999999999999700, 0.0000000000000000000 ) ) ;
#81 = PLANE ( 'NONE',  #79 ) ;
#82 = DIRECTION ( 'NONE',  ( -0.0000000000000000000, 0.0000000000000000000, 1.000000000000000000 ) ) ;
#83 = CARTESIAN_POINT ( 'NONE',  ( 126.9999999999999700, -177.9999999999999700, 3.000000000000000000 ) ) ;
#84 = DIRECTION ( 'NONE',  ( 0.0000000000000000000, -0.0000000000000000000, 1.000000000000000000 ) ) ;
#85 = PRODUCT_DEFINITION_FORMATION_WITH_SPECIFIED_SOURCE ( 'ANY', '', #171, .NOT_KNOWN. ) ;
#86 = APPROVAL_ROLE ( '' ) ;
#87 = DIRECTION ( 'NONE',  ( 1.559302000878029000E-016, -1.000000000000000000, 0.0000000000000000000 ) ) ;
#88 = VERTEX_POINT ( 'NONE', #136 ) ;
#89 = EDGE_CURVE ( 'NONE', #236, #4, #47, .T. ) ;
#90 = EDGE_CURVE ( 'NONE', #92, #60, #6, .T. ) ;
#91 = PERSON_AND_ORGANIZATION ( #215, #200 ) ;
#92 = VERTEX_POINT ( 'NONE', #24 ) ;
#93 = EDGE_CURVE ( 'NONE', #60, #158, #33, .T. ) ;
#94 = COORDINATED_UNIVERSAL_TIME_OFFSET ( 5, 0, .BEHIND. ) ;
#95 = LOCAL_TIME ( 12, 6, 42.00000000000000000, #201 ) ;
#96 = CARTESIAN_POINT ( 'NONE',  ( -127.0000000000000900, 178.0000000000000300, 0.0000000000000000000 ) ) ;
#97 = PERSON_AND_ORGANIZATION_ROLE ( 'design_supplier' ) ;
#98 = PERSON_AND_ORGANIZATION ( #215, #200 ) ;
#99 = CC_DESIGN_PERSON_AND_ORGANIZATION_ASSIGNMENT ( #42, #29, ( #85 ) ) ;
#100 = LOCAL_TIME ( 12, 6, 42.00000000000000000, #28 ) ;
#101 = ORIENTED_EDGE ( 'NONE', *, *, #204, .F. ) ;
#102 = LOCAL_TIME ( 12, 6, 42.00000000000000000, #94 ) ;
#103 = DIRECTION ( 'NONE',  ( -0.0000000000000000000, -0.0000000000000000000, -1.000000000000000000 ) ) ;
#104 = CC_DESIGN_DATE_AND_TIME_ASSIGNMENT ( #45, #31, ( #52 ) ) ;
#105 = DIRECTION ( 'NONE',  ( 1.000000000000000000, 1.559302000878029000E-016, -0.0000000000000000000 ) ) ;
#106 = PERSON_AND_ORGANIZATION ( #215, #200 ) ;
#107 = DIRECTION ( 'NONE',  ( 1.559302000878029000E-016, -1.000000000000000000, 0.0000000000000000000 ) ) ;
#108 = PLANE ( 'NONE',  #183 ) ;
#109 = ADVANCED_FACE ( 'NONE', ( #23 ), #128, .T. ) ;
#110 = DIRECTION ( 'NONE',  ( 1.000000000000000000, 0.0000000000000000000, 0.0000000000000000000 ) ) ;
#111 = ORIENTED_EDGE ( 'NONE', *, *, #58, .T. ) ;
#112 =( LENGTH_UNIT ( ) NAMED_UNIT ( * ) SI_UNIT ( .MILLI., .METRE. ) );
#113 = CARTESIAN_POINT ( 'NONE',  ( -127.0000000000000900, 178.0000000000000300, 0.0000000000000000000 ) ) ;
#114 = LINE ( 'NONE', #177, #175 ) ;
#115 = ORIENTED_EDGE ( 'NONE', *, *, #32, .T. ) ;
#116 = APPLICATION_CONTEXT ( 'configuration controlled 3d designs of mechanical parts and assemblies' ) ;
#117 = AXIS2_PLACEMENT_3D ( 'NONE', #223, #105, #166 ) ;
#118 = APPROVAL_PERSON_ORGANIZATION ( #225, #162, #21 ) ;
#119 = PERSON_AND_ORGANIZATION_ROLE ( 'design_owner' ) ;
#120 = ADVANCED_FACE ( 'NONE', ( #65 ), #186, .F. ) ;
#121 = CLOSED_SHELL ( 'NONE', ( #120, #126, #142, #168, #109, #146 ) ) ;
#122 = EDGE_CURVE ( 'NONE', #60, #53, #134, .T. ) ;
#123 = CARTESIAN_POINT ( 'NONE',  ( 126.9999999999999100, 178.0000000000000300, 0.0000000000000000000 ) ) ;
#124 = CARTESIAN_POINT ( 'NONE',  ( -127.0000000000000900, 178.0000000000000300, 3.000000000000000000 ) ) ;
#125 = DIRECTION ( 'NONE',  ( -0.0000000000000000000, -0.0000000000000000000, -1.000000000000000000 ) ) ;
#126 = ADVANCED_FACE ( 'NONE', ( #7 ), #81, .F. ) ;
#127 = UNCERTAINTY_MEASURE_WITH_UNIT (LENGTH_MEASURE( 1.000000000000000100E-005 ), #112, 'distance_accuracy_value', 'NONE');
#128 = PLANE ( 'NONE',  #198 ) ;
#129 = MECHANICAL_CONTEXT ( 'NONE', #116, 'mechanical' ) ;
#130 =( GEOMETRIC_REPRESENTATION_CONTEXT ( 3 ) GLOBAL_UNCERTAINTY_ASSIGNED_CONTEXT ( ( #127 ) ) GLOBAL_UNIT_ASSIGNED_CONTEXT ( ( #112, #3, #184 ) ) REPRESENTATION_CONTEXT ( 'NONE', 'WORKASPACE' ) );
#131 = APPROVAL ( #135, 'UNSPECIFIED' ) ;
#132 = APPROVAL_PERSON_ORGANIZATION ( #185, #17, #86 ) ;
#133 = PERSON_AND_ORGANIZATION_ROLE ( 'classification_officer' ) ;
#134 = LINE ( 'NONE', #205, #44 ) ;
#135 = APPROVAL_STATUS ( 'not_yet_approved' ) ;
#136 = CARTESIAN_POINT ( 'NONE',  ( -127.0000000000000300, -177.9999999999999700, 0.0000000000000000000 ) ) ;
#137 = COORDINATED_UNIVERSAL_TIME_OFFSET ( 5, 0, .BEHIND. ) ;
#138 = CC_DESIGN_PERSON_AND_ORGANIZATION_ASSIGNMENT ( #98, #39, ( #228 ) ) ;
#139 = DIRECTION ( 'NONE',  ( 0.0000000000000000000, 1.000000000000000000, 0.0000000000000000000 ) ) ;
#140 = CARTESIAN_POINT ( 'NONE',  ( -127.0000000000000300, -177.9999999999999700, 3.000000000000000000 ) ) ;
#141 = PERSON_AND_ORGANIZATION ( #215, #200 ) ;
#142 = ADVANCED_FACE ( 'NONE', ( #76 ), #16, .F. ) ;
#143 = SHAPE_DEFINITION_REPRESENTATION ( #151, #61 ) ;
#144 = APPROVAL_STATUS ( 'not_yet_approved' ) ;
#145 = CARTESIAN_POINT ( 'NONE',  ( 0.0000000000000000000, 0.0000000000000000000, 0.0000000000000000000 ) ) ;
#146 = ADVANCED_FACE ( 'NONE', ( #220 ), #217, .F. ) ;
#147 = VECTOR ( 'NONE', #165, 1000.000000000000000 ) ;
#148 = DATE_AND_TIME ( #231, #102 ) ;
#149 = CARTESIAN_POINT ( 'NONE',  ( -127.0000000000000900, 178.0000000000000300, 3.000000000000000000 ) ) ;
#150 = APPROVAL_STATUS ( 'not_yet_approved' ) ;
#151 = PRODUCT_DEFINITION_SHAPE ( 'NONE', 'NONE',  #228 ) ;
#152 = PERSON_AND_ORGANIZATION ( #215, #200 ) ;
#153 = ORIENTED_EDGE ( 'NONE', *, *, #93, .F. ) ;
#154 = PRODUCT_RELATED_PRODUCT_CATEGORY ( 'detail', '', ( #171 ) ) ;
#155 = ORIENTED_EDGE ( 'NONE', *, *, #25, .F. ) ;
#156 = DIRECTION ( 'NONE',  ( 0.0000000000000000000, -0.0000000000000000000, -1.000000000000000000 ) ) ;
#157 = EDGE_LOOP ( 'NONE', ( #59, #54, #9, #111 ) ) ;
#158 = VERTEX_POINT ( 'NONE', #224 ) ;
#159 = DIRECTION ( 'NONE',  ( -1.559302000878029000E-016, 1.000000000000000000, -0.0000000000000000000 ) ) ;
#160 = APPROVAL_PERSON_ORGANIZATION ( #106, #131, #11 ) ;
#161 = ORIENTED_EDGE ( 'NONE', *, *, #122, .T. ) ;
#162 = APPROVAL ( #150, 'UNSPECIFIED' ) ;
#163 = CARTESIAN_POINT ( 'NONE',  ( -127.0000000000000300, -177.9999999999999700, 0.0000000000000000000 ) ) ;
#164 = EDGE_LOOP ( 'NONE', ( #203, #46, #191, #221 ) ) ;
#165 = DIRECTION ( 'NONE',  ( -1.000000000000000000, -0.0000000000000000000, -0.0000000000000000000 ) ) ;
#166 = DIRECTION ( 'NONE',  ( -1.559302000878029000E-016, 1.000000000000000000, 0.0000000000000000000 ) ) ;
#167 = ORIENTED_EDGE ( 'NONE', *, *, #51, .F. ) ;
#168 = ADVANCED_FACE ( 'NONE', ( #72 ), #108, .F. ) ;
#169 = CARTESIAN_POINT ( 'NONE',  ( -127.0000000000000900, 178.0000000000000300, 0.0000000000000000000 ) ) ;
#170 = CC_DESIGN_PERSON_AND_ORGANIZATION_ASSIGNMENT ( #141, #119, ( #171 ) ) ;
#171 = PRODUCT ( 'Web Model 68268_46584', 'Web Model 68268_46584', '', ( #129 ) ) ;
#172 = CARTESIAN_POINT ( 'NONE',  ( -127.0000000000000300, -177.9999999999999700, 3.000000000000000000 ) ) ;
#173 = CALENDAR_DATE ( 2017, 12, 4 ) ;
#174 = EDGE_LOOP ( 'NONE', ( #211, #216, #27, #178 ) ) ;
#175 = VECTOR ( 'NONE', #103, 1000.000000000000000 ) ;
#176 = CALENDAR_DATE ( 2017, 12, 4 ) ;
#177 = CARTESIAN_POINT ( 'NONE',  ( 126.9999999999999100, 178.0000000000000300, 3.000000000000000000 ) ) ;
#178 = ORIENTED_EDGE ( 'NONE', *, *, #227, .T. ) ;
#179 = DATE_AND_TIME ( #173, #67 ) ;
#180 = VECTOR ( 'NONE', #22, 1000.000000000000000 ) ;
#181 = COORDINATED_UNIVERSAL_TIME_OFFSET ( 5, 0, .BEHIND. ) ;
#182 = DIRECTION ( 'NONE',  ( -1.000000000000000000, -0.0000000000000000000, -0.0000000000000000000 ) ) ;
#183 = AXIS2_PLACEMENT_3D ( 'NONE', #149, #232, #156 ) ;
#184 =( NAMED_UNIT ( * ) SI_UNIT ( $, .STERADIAN. ) SOLID_ANGLE_UNIT ( ) );
#185 = PERSON_AND_ORGANIZATION ( #215, #200 ) ;
#186 = PLANE ( 'NONE',  #117 ) ;
#187 = CC_DESIGN_PERSON_AND_ORGANIZATION_ASSIGNMENT ( #152, #97, ( #85 ) ) ;
#188 = VECTOR ( 'NONE', #125, 1000.000000000000000 ) ;
#189 = LINE ( 'NONE', #169, #147 ) ;
#190 = CARTESIAN_POINT ( 'NONE',  ( -127.0000000000000300, -177.9999999999999700, 3.000000000000000000 ) ) ;
#191 = ORIENTED_EDGE ( 'NONE', *, *, #58, .F. ) ;
#192 = DIRECTION ( 'NONE',  ( 1.000000000000000000, 0.0000000000000000000, 0.0000000000000000000 ) ) ;
#193 = VECTOR ( 'NONE', #192, 1000.000000000000000 ) ;
#194 = AXIS2_PLACEMENT_3D ( 'NONE', #145, #2, #229 ) ;
#195 = VECTOR ( 'NONE', #159, 1000.000000000000000 ) ;
#196 = VERTEX_POINT ( 'NONE', #68 ) ;
#197 = DESIGN_CONTEXT ( 'detailed design', #13, 'design' ) ;
#198 = AXIS2_PLACEMENT_3D ( 'NONE', #222, #69, #110 ) ;
#199 = LINE ( 'NONE', #140, #188 ) ;
#200 = ORGANIZATION ( 'UNSPECIFIED', 'UNSPECIFIED', '' ) ;
#201 = COORDINATED_UNIVERSAL_TIME_OFFSET ( 5, 0, .BEHIND. ) ;
#202 = LINE ( 'NONE', #41, #212 ) ;
#203 = ORIENTED_EDGE ( 'NONE', *, *, #209, .T. ) ;
#204 = EDGE_CURVE ( 'NONE', #4, #88, #19, .T. ) ;
#205 = CARTESIAN_POINT ( 'NONE',  ( 126.9999999999999700, -177.9999999999999700, 3.000000000000000000 ) ) ;
#206 = ORIENTED_EDGE ( 'NONE', *, *, #32, .F. ) ;
#207 = LOCAL_TIME ( 12, 6, 42.00000000000000000, #137 ) ;
#208 = VECTOR ( 'NONE', #56, 1000.000000000000000 ) ;
#209 = EDGE_CURVE ( 'NONE', #196, #4, #189, .T. ) ;
#210 = CC_DESIGN_DATE_AND_TIME_ASSIGNMENT ( #148, #57, ( #228 ) ) ;
#211 = ORIENTED_EDGE ( 'NONE', *, *, #25, .T. ) ;
#212 = VECTOR ( 'NONE', #182, 1000.000000000000000 ) ;
#213 = EDGE_LOOP ( 'NONE', ( #101, #230, #206, #155 ) ) ;
#214 = ORIENTED_EDGE ( 'NONE', *, *, #227, .F. ) ;
#215 = PERSON ( 'UNSPECIFIED', 'UNSPECIFIED', 'UNSPECIFIED', ('UNSPECIFIED'), ('UNSPECIFIED'), ('UNSPECIFIED') ) ;
#216 = ORIENTED_EDGE ( 'NONE', *, *, #122, .F. ) ;
#217 = PLANE ( 'NONE',  #30 ) ;
#218 = CC_DESIGN_APPROVAL ( #162, ( #85 ) ) ;
#219 = EDGE_CURVE ( 'NONE', #158, #196, #114, .T. ) ;
#220 = FACE_OUTER_BOUND ( 'NONE', #213, .T. ) ;
#221 = ORIENTED_EDGE ( 'NONE', *, *, #219, .T. ) ;
#222 = CARTESIAN_POINT ( 'NONE',  ( -127.0000000000000300, -177.9999999999999700, 3.000000000000000000 ) ) ;
#223 = CARTESIAN_POINT ( 'NONE',  ( -127.0000000000000900, 178.0000000000000300, 3.000000000000000000 ) ) ;
#224 = CARTESIAN_POINT ( 'NONE',  ( 126.9999999999999100, 178.0000000000000300, 3.000000000000000000 ) ) ;
#225 = PERSON_AND_ORGANIZATION ( #215, #200 ) ;
#226 = VECTOR ( 'NONE', #66, 1000.000000000000000 ) ;
#227 = EDGE_CURVE ( 'NONE', #92, #88, #199, .T. ) ;
#228 = PRODUCT_DEFINITION ( 'UNKNOWN', '', #85, #197 ) ;
#229 = DIRECTION ( 'NONE',  ( 1.000000000000000000, 0.0000000000000000000, 0.0000000000000000000 ) ) ;
#230 = ORIENTED_EDGE ( 'NONE', *, *, #209, .F. ) ;
#231 = CALENDAR_DATE ( 2017, 12, 4 ) ;
#232 = DIRECTION ( 'NONE',  ( 0.0000000000000000000, -1.000000000000000000, 0.0000000000000000000 ) ) ;
#233 = LINE ( 'NONE', #163, #193 ) ;
#234 = MANIFOLD_SOLID_BREP ( 'Extrude1', #121 ) ;
#235 = EDGE_LOOP ( 'NONE', ( #12, #214, #167, #18 ) ) ;
#236 = VERTEX_POINT ( 'NONE', #74 ) ;
#237 = VECTOR ( 'NONE', #63, 1000.000000000000000 ) ;
ENDSEC;
END-ISO-10303-21;
