ISO-10303-21;
HEADER;
FILE_DESCRIPTION (( 'STEP AP203' ),
    '1' );
FILE_NAME ('Web Model 19837_19868.step',
    '2022-04-06T15:06:46',
    ( 'WC' ),
    ( 'Windows Central' ),
    'SwSTEP 2.0',
    'SolidWorks 2021',
    '' );
FILE_SCHEMA (( 'CONFIG_CONTROL_DESIGN' ));
ENDSEC;

DATA;
#1 = CC_DESIGN_APPROVAL ( #162, ( #12 ) ) ;
#2 = APPROVAL_STATUS ( 'not_yet_approved' ) ;
#3 = DATE_AND_TIME ( #51, #50 ) ;
#4 = APPROVAL_DATE_TIME ( #160, #141 ) ;
#5 = PERSON_AND_ORGANIZATION_ROLE ( 'creator' ) ;
#6 = DIRECTION ( 'NONE',  ( -0.000000000000000000, -0.000000000000000000, -1.000000000000000000 ) ) ;
#7 = DIRECTION ( 'NONE',  ( 0.000000000000000000, 0.000000000000000000, 1.000000000000000000 ) ) ;
#8 = PERSON_AND_ORGANIZATION ( #92, #93 ) ;
#9 = DIRECTION ( 'NONE',  ( -0.000000000000000000, -0.000000000000000000, -1.000000000000000000 ) ) ;
#10 = CARTESIAN_POINT ( 'NONE',  ( -12.50000000000000000, 0.000000000000000000, 0.000000000000000000 ) ) ;
#11 = COORDINATED_UNIVERSAL_TIME_OFFSET ( 5, 0, .BEHIND. ) ;
#12 = PRODUCT_DEFINITION_FORMATION_WITH_SPECIFIED_SOURCE ( 'ANY', '', #46, .NOT_KNOWN. ) ;
#13 = PERSON_AND_ORGANIZATION_ROLE ( 'design_supplier' ) ;
#14 = CARTESIAN_POINT ( 'NONE',  ( 12.50000000000000000, 1.530808498934191521E-15, 0.000000000000000000 ) ) ;
#15 = ORIENTED_EDGE ( 'NONE', *, *, #79, .F. ) ;
#16 = COORDINATED_UNIVERSAL_TIME_OFFSET ( 5, 0, .BEHIND. ) ;
#17 = SECURITY_CLASSIFICATION ( '', '', #40 ) ;
#18 = DIRECTION ( 'NONE',  ( 1.000000000000000000, 0.000000000000000000, 0.000000000000000000 ) ) ;
#19 = FACE_OUTER_BOUND ( 'NONE', #143, .T. ) ;
#20 = CARTESIAN_POINT ( 'NONE',  ( 12.50000000000000000, 1.530808498934191521E-15, 5.000000000000000000 ) ) ;
#21 = AXIS2_PLACEMENT_3D ( 'NONE', #125, #7, #18 ) ;
#22 = LOCAL_TIME ( 11, 6, 46.00000000000000000, #149 ) ;
#23 = PERSON_AND_ORGANIZATION ( #92, #93 ) ;
#24 = DATE_AND_TIME ( #52, #22 ) ;
#25 = CC_DESIGN_APPROVAL ( #141, ( #17 ) ) ;
#26 = ADVANCED_FACE ( 'NONE', ( #89 ), #32, .T. ) ;
#27 = AXIS2_PLACEMENT_3D ( 'NONE', #73, #42, #175 ) ;
#28 = ORIENTED_EDGE ( 'NONE', *, *, #158, .F. ) ;
#29 =( NAMED_UNIT ( * ) PLANE_ANGLE_UNIT ( ) SI_UNIT ( $, .RADIAN. ) );
#30 = VERTEX_POINT ( 'NONE', #124 ) ;
#31 = ORIENTED_EDGE ( 'NONE', *, *, #39, .F. ) ;
#32 = PLANE ( 'NONE',  #27 ) ;
#33 =( GEOMETRIC_REPRESENTATION_CONTEXT ( 3 ) GLOBAL_UNCERTAINTY_ASSIGNED_CONTEXT ( ( #41 ) ) GLOBAL_UNIT_ASSIGNED_CONTEXT ( ( #62, #29, #86 ) ) REPRESENTATION_CONTEXT ( 'NONE', 'WORKASPACE' ) );
#34 = ADVANCED_FACE ( 'NONE', ( #19 ), #82, .T. ) ;
#35 = PRODUCT_RELATED_PRODUCT_CATEGORY ( 'detail', '', ( #46 ) ) ;
#36 = VECTOR ( 'NONE', #168, 1000.000000000000000 ) ;
#37 = APPROVAL_STATUS ( 'not_yet_approved' ) ;
#38 = LOCAL_TIME ( 11, 6, 46.00000000000000000, #78 ) ;
#39 = EDGE_CURVE ( 'NONE', #103, #58, #97, .T. ) ;
#40 = SECURITY_CLASSIFICATION_LEVEL ( 'unclassified' ) ;
#41 = UNCERTAINTY_MEASURE_WITH_UNIT (LENGTH_MEASURE( 1.000000000000000082E-05 ), #62, 'distance_accuracy_value', 'NONE');
#42 = DIRECTION ( 'NONE',  ( 0.000000000000000000, 0.000000000000000000, 1.000000000000000000 ) ) ;
#43 = VECTOR ( 'NONE', #6, 1000.000000000000000 ) ;
#44 = CARTESIAN_POINT ( 'NONE',  ( 0.000000000000000000, 0.000000000000000000, 5.000000000000000000 ) ) ;
#45 = DIRECTION ( 'NONE',  ( -0.000000000000000000, -0.000000000000000000, -1.000000000000000000 ) ) ;
#46 = PRODUCT ( 'Web Model 19837_19868', 'Web Model 19837_19868', '', ( #145 ) ) ;
#47 = ORIENTED_EDGE ( 'NONE', *, *, #109, .T. ) ;
#48 = ORIENTED_EDGE ( 'NONE', *, *, #39, .T. ) ;
#49 = DIRECTION ( 'NONE',  ( 0.000000000000000000, 0.000000000000000000, 1.000000000000000000 ) ) ;
#50 = LOCAL_TIME ( 11, 6, 46.00000000000000000, #161 ) ;
#51 = CALENDAR_DATE ( 2022, 6, 4 ) ;
#52 = CALENDAR_DATE ( 2022, 6, 4 ) ;
#53 = AXIS2_PLACEMENT_3D ( 'NONE', #102, #88, #154 ) ;
#54 = PERSON_AND_ORGANIZATION ( #92, #93 ) ;
#55 = CARTESIAN_POINT ( 'NONE',  ( 0.000000000000000000, 0.000000000000000000, 0.000000000000000000 ) ) ;
#56 = AXIS2_PLACEMENT_3D ( 'NONE', #63, #153, #61 ) ;
#57 = APPROVAL_PERSON_ORGANIZATION ( #94, #141, #108 ) ;
#58 = VERTEX_POINT ( 'NONE', #10 ) ;
#59 = LINE ( 'NONE', #20, #36 ) ;
#60 = ADVANCED_FACE ( 'NONE', ( #87 ), #71, .F. ) ;
#61 = DIRECTION ( 'NONE',  ( 1.000000000000000000, 0.000000000000000000, -0.000000000000000000 ) ) ;
#62 =( LENGTH_UNIT ( ) NAMED_UNIT ( * ) SI_UNIT ( .MILLI., .METRE. ) );
#63 = CARTESIAN_POINT ( 'NONE',  ( 0.000000000000000000, 0.000000000000000000, 0.000000000000000000 ) ) ;
#64 = PRODUCT_DEFINITION ( 'UNKNOWN', '', #12, #164 ) ;
#65 = AXIS2_PLACEMENT_3D ( 'NONE', #55, #173, #147 ) ;
#66 = ADVANCED_BREP_SHAPE_REPRESENTATION ( 'Web Model 19837_19868', ( #118, #53 ), #33 ) ;
#67 = PERSON_AND_ORGANIZATION ( #92, #93 ) ;
#68 = CC_DESIGN_PERSON_AND_ORGANIZATION_ASSIGNMENT ( #54, #152, ( #12 ) ) ;
#69 = APPROVAL_DATE_TIME ( #3, #162 ) ;
#70 = ORIENTED_EDGE ( 'NONE', *, *, #79, .T. ) ;
#71 = PLANE ( 'NONE',  #56 ) ;
#72 = CALENDAR_DATE ( 2022, 6, 4 ) ;
#73 = CARTESIAN_POINT ( 'NONE',  ( 0.000000000000000000, 0.000000000000000000, 5.000000000000000000 ) ) ;
#74 = EDGE_CURVE ( 'NONE', #30, #58, #116, .T. ) ;
#75 = DIRECTION ( 'NONE',  ( -1.000000000000000000, 0.000000000000000000, 0.000000000000000000 ) ) ;
#76 = CC_DESIGN_DATE_AND_TIME_ASSIGNMENT ( #24, #80, ( #64 ) ) ;
#77 = CC_DESIGN_DATE_AND_TIME_ASSIGNMENT ( #107, #110, ( #17 ) ) ;
#78 = COORDINATED_UNIVERSAL_TIME_OFFSET ( 5, 0, .BEHIND. ) ;
#79 = EDGE_CURVE ( 'NONE', #30, #146, #148, .T. ) ;
#80 = DATE_TIME_ROLE ( 'creation_date' ) ;
#81 = CC_DESIGN_PERSON_AND_ORGANIZATION_ASSIGNMENT ( #67, #95, ( #17 ) ) ;
#82 = CYLINDRICAL_SURFACE ( 'NONE', #174, 12.50000000000000000 ) ;
#83 = PRODUCT_DEFINITION_SHAPE ( 'NONE', 'NONE',  #64 ) ;
#84 = APPROVAL_STATUS ( 'not_yet_approved' ) ;
#85 = EDGE_LOOP ( 'NONE', ( #70, #159 ) ) ;
#86 =( NAMED_UNIT ( * ) SI_UNIT ( $, .STERADIAN. ) SOLID_ANGLE_UNIT ( ) );
#87 = FACE_OUTER_BOUND ( 'NONE', #167, .T. ) ;
#88 = DIRECTION ( 'NONE',  ( 0.000000000000000000, 0.000000000000000000, 1.000000000000000000 ) ) ;
#89 = FACE_OUTER_BOUND ( 'NONE', #85, .T. ) ;
#90 = PERSON_AND_ORGANIZATION ( #92, #93 ) ;
#91 = CIRCLE ( 'NONE', #65, 12.50000000000000000 ) ;
#92 = PERSON ( 'UNSPECIFIED', 'UNSPECIFIED', 'UNSPECIFIED', ('UNSPECIFIED'), ('UNSPECIFIED'), ('UNSPECIFIED') ) ;
#93 = ORGANIZATION ( 'UNSPECIFIED', 'UNSPECIFIED', '' ) ;
#94 = PERSON_AND_ORGANIZATION ( #92, #93 ) ;
#95 = PERSON_AND_ORGANIZATION_ROLE ( 'classification_officer' ) ;
#96 = SHAPE_DEFINITION_REPRESENTATION ( #83, #66 ) ;
#97 = CIRCLE ( 'NONE', #115, 12.50000000000000000 ) ;
#98 = DIRECTION ( 'NONE',  ( 0.000000000000000000, 0.000000000000000000, 1.000000000000000000 ) ) ;
#99 = APPLICATION_PROTOCOL_DEFINITION ( 'international standard', 'config_control_design', 1994, #163 ) ;
#100 = DIRECTION ( 'NONE',  ( 1.000000000000000000, 0.000000000000000000, 0.000000000000000000 ) ) ;
#101 = CARTESIAN_POINT ( 'NONE',  ( 0.000000000000000000, 0.000000000000000000, 5.000000000000000000 ) ) ;
#102 = CARTESIAN_POINT ( 'NONE',  ( 0.000000000000000000, 0.000000000000000000, 0.000000000000000000 ) ) ;
#103 = VERTEX_POINT ( 'NONE', #14 ) ;
#104 = APPLICATION_PROTOCOL_DEFINITION ( 'international standard', 'config_control_design', 1994, #128 ) ;
#105 = CC_DESIGN_APPROVAL ( #106, ( #64 ) ) ;
#106 = APPROVAL ( #84, 'UNSPECIFIED' ) ;
#107 = DATE_AND_TIME ( #135, #38 ) ;
#108 = APPROVAL_ROLE ( '' ) ;
#109 = EDGE_CURVE ( 'NONE', #58, #103, #91, .T. ) ;
#110 = DATE_TIME_ROLE ( 'classification_date' ) ;
#111 = CARTESIAN_POINT ( 'NONE',  ( 12.50000000000000000, 1.530808498934191521E-15, 5.000000000000000000 ) ) ;
#112 = AXIS2_PLACEMENT_3D ( 'NONE', #172, #45, #157 ) ;
#113 = ORIENTED_EDGE ( 'NONE', *, *, #74, .T. ) ;
#114 = FACE_OUTER_BOUND ( 'NONE', #140, .T. ) ;
#115 = AXIS2_PLACEMENT_3D ( 'NONE', #129, #98, #131 ) ;
#116 = LINE ( 'NONE', #138, #43 ) ;
#117 = APPROVAL_PERSON_ORGANIZATION ( #23, #162, #166 ) ;
#118 = MANIFOLD_SOLID_BREP ( 'Boss-Extrude1', #120 ) ;
#119 = ADVANCED_FACE ( 'NONE', ( #114 ), #155, .T. ) ;
#120 = CLOSED_SHELL ( 'NONE', ( #119, #34, #26, #60 ) ) ;
#121 = CC_DESIGN_PERSON_AND_ORGANIZATION_ASSIGNMENT ( #139, #170, ( #46 ) ) ;
#122 = CC_DESIGN_SECURITY_CLASSIFICATION ( #17, ( #12 ) ) ;
#123 = CALENDAR_DATE ( 2022, 6, 4 ) ;
#124 = CARTESIAN_POINT ( 'NONE',  ( -12.50000000000000000, 0.000000000000000000, 5.000000000000000000 ) ) ;
#125 = CARTESIAN_POINT ( 'NONE',  ( 0.000000000000000000, 0.000000000000000000, 5.000000000000000000 ) ) ;
#126 = ORIENTED_EDGE ( 'NONE', *, *, #158, .T. ) ;
#127 = DATE_AND_TIME ( #72, #165 ) ;
#128 = APPLICATION_CONTEXT ( 'configuration controlled 3d designs of mechanical parts and assemblies' ) ;
#129 = CARTESIAN_POINT ( 'NONE',  ( 0.000000000000000000, 0.000000000000000000, 0.000000000000000000 ) ) ;
#130 = APPROVAL_DATE_TIME ( #127, #106 ) ;
#131 = DIRECTION ( 'NONE',  ( 1.000000000000000000, 0.000000000000000000, 0.000000000000000000 ) ) ;
#132 = APPROVAL_PERSON_ORGANIZATION ( #90, #106, #142 ) ;
#133 = PERSON_AND_ORGANIZATION ( #92, #93 ) ;
#134 = CC_DESIGN_PERSON_AND_ORGANIZATION_ASSIGNMENT ( #133, #13, ( #12 ) ) ;
#135 = CALENDAR_DATE ( 2022, 6, 4 ) ;
#136 = AXIS2_PLACEMENT_3D ( 'NONE', #44, #49, #100 ) ;
#137 = CC_DESIGN_PERSON_AND_ORGANIZATION_ASSIGNMENT ( #8, #5, ( #64 ) ) ;
#138 = CARTESIAN_POINT ( 'NONE',  ( -12.50000000000000000, 0.000000000000000000, 5.000000000000000000 ) ) ;
#139 = PERSON_AND_ORGANIZATION ( #92, #93 ) ;
#140 = EDGE_LOOP ( 'NONE', ( #156, #126, #48, #169 ) ) ;
#141 = APPROVAL ( #37, 'UNSPECIFIED' ) ;
#142 = APPROVAL_ROLE ( '' ) ;
#143 = EDGE_LOOP ( 'NONE', ( #28, #15, #113, #47 ) ) ;
#144 = LOCAL_TIME ( 11, 6, 46.00000000000000000, #11 ) ;
#145 = MECHANICAL_CONTEXT ( 'NONE', #163, 'mechanical' ) ;
#146 = VERTEX_POINT ( 'NONE', #111 ) ;
#147 = DIRECTION ( 'NONE',  ( 1.000000000000000000, 0.000000000000000000, 0.000000000000000000 ) ) ;
#148 = CIRCLE ( 'NONE', #136, 12.50000000000000000 ) ;
#149 = COORDINATED_UNIVERSAL_TIME_OFFSET ( 5, 0, .BEHIND. ) ;
#150 = CIRCLE ( 'NONE', #21, 12.50000000000000000 ) ;
#151 = EDGE_CURVE ( 'NONE', #146, #30, #150, .T. ) ;
#152 = PERSON_AND_ORGANIZATION_ROLE ( 'creator' ) ;
#153 = DIRECTION ( 'NONE',  ( 0.000000000000000000, 0.000000000000000000, 1.000000000000000000 ) ) ;
#154 = DIRECTION ( 'NONE',  ( 1.000000000000000000, 0.000000000000000000, 0.000000000000000000 ) ) ;
#155 = CYLINDRICAL_SURFACE ( 'NONE', #112, 12.50000000000000000 ) ;
#156 = ORIENTED_EDGE ( 'NONE', *, *, #151, .F. ) ;
#157 = DIRECTION ( 'NONE',  ( -1.000000000000000000, 0.000000000000000000, 0.000000000000000000 ) ) ;
#158 = EDGE_CURVE ( 'NONE', #146, #103, #59, .T. ) ;
#159 = ORIENTED_EDGE ( 'NONE', *, *, #151, .T. ) ;
#160 = DATE_AND_TIME ( #123, #144 ) ;
#161 = COORDINATED_UNIVERSAL_TIME_OFFSET ( 5, 0, .BEHIND. ) ;
#162 = APPROVAL ( #2, 'UNSPECIFIED' ) ;
#163 = APPLICATION_CONTEXT ( 'configuration controlled 3d designs of mechanical parts and assemblies' ) ;
#164 = DESIGN_CONTEXT ( 'detailed design', #128, 'design' ) ;
#165 = LOCAL_TIME ( 11, 6, 46.00000000000000000, #16 ) ;
#166 = APPROVAL_ROLE ( '' ) ;
#167 = EDGE_LOOP ( 'NONE', ( #171, #31 ) ) ;
#168 = DIRECTION ( 'NONE',  ( -0.000000000000000000, -0.000000000000000000, -1.000000000000000000 ) ) ;
#169 = ORIENTED_EDGE ( 'NONE', *, *, #74, .F. ) ;
#170 = PERSON_AND_ORGANIZATION_ROLE ( 'design_owner' ) ;
#171 = ORIENTED_EDGE ( 'NONE', *, *, #109, .F. ) ;
#172 = CARTESIAN_POINT ( 'NONE',  ( 0.000000000000000000, 0.000000000000000000, 5.000000000000000000 ) ) ;
#173 = DIRECTION ( 'NONE',  ( 0.000000000000000000, 0.000000000000000000, 1.000000000000000000 ) ) ;
#174 = AXIS2_PLACEMENT_3D ( 'NONE', #101, #9, #75 ) ;
#175 = DIRECTION ( 'NONE',  ( 1.000000000000000000, 0.000000000000000000, -0.000000000000000000 ) ) ;
ENDSEC;
END-ISO-10303-21;
