ISO-10303-21;
HEADER;
FILE_DESCRIPTION (( 'STEP AP203' ),
    '1' );
FILE_NAME ('Web Model 46664_45312.step',
    '2017-04-10T15:39:12',
    ( '' ),
    ( '' ),
    'SwSTEP 2.0',
    'SolidWorks 2016',
    '' );
FILE_SCHEMA (( 'CONFIG_CONTROL_DESIGN' ));
ENDSEC;

DATA;
#1 = ORIENTED_EDGE ( 'NONE', *, *, #171, .T. ) ;
#2 =( LENGTH_UNIT ( ) NAMED_UNIT ( * ) SI_UNIT ( .MILLI., .METRE. ) );
#3 = EDGE_LOOP ( 'NONE', ( #56, #33, #168, #120 ) ) ;
#4 = CARTESIAN_POINT ( 'NONE',  ( 0.0000000000000000000, 0.0000000000000000000, -0.5000000000000000000 ) ) ;
#5 = EDGE_CURVE ( 'NONE', #17, #175, #143, .T. ) ;
#6 = FACE_OUTER_BOUND ( 'NONE', #128, .T. ) ;
#7 = CC_DESIGN_DATE_AND_TIME_ASSIGNMENT ( #30, #89, ( #16 ) ) ;
#8 = DIRECTION ( 'NONE',  ( -0.0000000000000000000, -0.0000000000000000000, 1.000000000000000000 ) ) ;
#9 = DIRECTION ( 'NONE',  ( 0.0000000000000000000, 0.0000000000000000000, -1.000000000000000000 ) ) ;
#10 = ORIENTED_EDGE ( 'NONE', *, *, #52, .F. ) ;
#11 = PERSON_AND_ORGANIZATION ( #42, #172 ) ;
#12 = DIRECTION ( 'NONE',  ( 1.000000000000000000, 0.0000000000000000000, 0.0000000000000000000 ) ) ;
#13 = PRODUCT_DEFINITION_SHAPE ( 'NONE', 'NONE',  #70 ) ;
#14 = AXIS2_PLACEMENT_3D ( 'NONE', #106, #123, #105 ) ;
#15 =( NAMED_UNIT ( * ) SI_UNIT ( $, .STERADIAN. ) SOLID_ANGLE_UNIT ( ) );
#16 = SECURITY_CLASSIFICATION ( '', '', #22 ) ;
#17 = VERTEX_POINT ( 'NONE', #28 ) ;
#18 = PERSON_AND_ORGANIZATION_ROLE ( 'creator' ) ;
#19 = LOCAL_TIME ( 11, 39, 12.00000000000000000, #113 ) ;
#20 = AXIS2_PLACEMENT_3D ( 'NONE', #44, #173, #34 ) ;
#21 = AXIS2_PLACEMENT_3D ( 'NONE', #97, #139, #86 ) ;
#22 = SECURITY_CLASSIFICATION_LEVEL ( 'unclassified' ) ;
#23 = DIRECTION ( 'NONE',  ( -0.0000000000000000000, -0.0000000000000000000, 1.000000000000000000 ) ) ;
#24 = PLANE ( 'NONE',  #132 ) ;
#25 = LINE ( 'NONE', #61, #50 ) ;
#26 = APPROVAL_ROLE ( '' ) ;
#27 = EDGE_CURVE ( 'NONE', #175, #17, #85, .T. ) ;
#28 = CARTESIAN_POINT ( 'NONE',  ( 6.250000000000000000, 0.0000000000000000000, 0.5000000000000000000 ) ) ;
#29 = APPROVAL_PERSON_ORGANIZATION ( #49, #164, #82 ) ;
#30 = DATE_AND_TIME ( #45, #107 ) ;
#31 = APPROVAL_STATUS ( 'not_yet_approved' ) ;
#32 = CC_DESIGN_PERSON_AND_ORGANIZATION_ASSIGNMENT ( #11, #95, ( #138 ) ) ;
#33 = ORIENTED_EDGE ( 'NONE', *, *, #52, .T. ) ;
#34 = DIRECTION ( 'NONE',  ( 1.000000000000000000, 0.0000000000000000000, 0.0000000000000000000 ) ) ;
#35 = COORDINATED_UNIVERSAL_TIME_OFFSET ( 5, 0, .BEHIND. ) ;
#36 = PERSON_AND_ORGANIZATION_ROLE ( 'creator' ) ;
#37 = AXIS2_PLACEMENT_3D ( 'NONE', #135, #75, #148 ) ;
#38 = ADVANCED_FACE ( 'NONE', ( #68 ), #102, .T. ) ;
#39 = PERSON_AND_ORGANIZATION ( #42, #172 ) ;
#40 = PERSON_AND_ORGANIZATION_ROLE ( 'design_supplier' ) ;
#41 = APPROVAL_PERSON_ORGANIZATION ( #39, #142, #57 ) ;
#42 = PERSON ( 'UNSPECIFIED', 'UNSPECIFIED', 'UNSPECIFIED', ('UNSPECIFIED'), ('UNSPECIFIED'), ('UNSPECIFIED') ) ;
#43 = CYLINDRICAL_SURFACE ( 'NONE', #37, 6.250000000000000000 ) ;
#44 = CARTESIAN_POINT ( 'NONE',  ( 0.0000000000000000000, 0.0000000000000000000, 0.5000000000000000000 ) ) ;
#45 = CALENDAR_DATE ( 2017, 10, 4 ) ;
#46 = CC_DESIGN_APPROVAL ( #164, ( #16 ) ) ;
#47 = CLOSED_SHELL ( 'NONE', ( #38, #92, #149, #158 ) ) ;
#48 = DATE_AND_TIME ( #121, #99 ) ;
#49 = PERSON_AND_ORGANIZATION ( #42, #172 ) ;
#50 = VECTOR ( 'NONE', #110, 1000.000000000000000 ) ;
#51 = APPLICATION_PROTOCOL_DEFINITION ( 'international standard', 'config_control_design', 1994, #119 ) ;
#52 = EDGE_CURVE ( 'NONE', #72, #151, #131, .T. ) ;
#53 = CARTESIAN_POINT ( 'NONE',  ( 0.0000000000000000000, 0.0000000000000000000, 0.5000000000000000000 ) ) ;
#54 = CC_DESIGN_SECURITY_CLASSIFICATION ( #16, ( #103 ) ) ;
#55 = APPROVAL_DATE_TIME ( #48, #164 ) ;
#56 = ORIENTED_EDGE ( 'NONE', *, *, #104, .F. ) ;
#57 = APPROVAL_ROLE ( '' ) ;
#58 = DATE_AND_TIME ( #108, #117 ) ;
#59 = VECTOR ( 'NONE', #146, 1000.000000000000000 ) ;
#60 = PERSON_AND_ORGANIZATION ( #42, #172 ) ;
#61 = CARTESIAN_POINT ( 'NONE',  ( 6.250000000000000000, 0.0000000000000000000, 0.0000000000000000000 ) ) ;
#62 = ORIENTED_EDGE ( 'NONE', *, *, #5, .T. ) ;
#63 = AXIS2_PLACEMENT_3D ( 'NONE', #137, #8, #125 ) ;
#64 = FACE_OUTER_BOUND ( 'NONE', #3, .T. ) ;
#65 = PRODUCT_RELATED_PRODUCT_CATEGORY ( 'detail', '', ( #138 ) ) ;
#66 = DIRECTION ( 'NONE',  ( 0.0000000000000000000, -0.0000000000000000000, 1.000000000000000000 ) ) ;
#67 = ORIENTED_EDGE ( 'NONE', *, *, #145, .F. ) ;
#68 = FACE_OUTER_BOUND ( 'NONE', #136, .T. ) ;
#69 = DIRECTION ( 'NONE',  ( -0.0000000000000000000, -0.0000000000000000000, 1.000000000000000000 ) ) ;
#70 = PRODUCT_DEFINITION ( 'UNKNOWN', '', #103, #166 ) ;
#71 = AXIS2_PLACEMENT_3D ( 'NONE', #53, #9, #159 ) ;
#72 = VERTEX_POINT ( 'NONE', #127 ) ;
#73 = CARTESIAN_POINT ( 'NONE',  ( -6.250000000000000000, 7.654042494670957600E-016, 0.0000000000000000000 ) ) ;
#74 = CC_DESIGN_PERSON_AND_ORGANIZATION_ASSIGNMENT ( #134, #18, ( #103 ) ) ;
#75 = DIRECTION ( 'NONE',  ( -0.0000000000000000000, -0.0000000000000000000, 1.000000000000000000 ) ) ;
#76 = CARTESIAN_POINT ( 'NONE',  ( 0.0000000000000000000, 0.0000000000000000000, 0.0000000000000000000 ) ) ;
#77 = COORDINATED_UNIVERSAL_TIME_OFFSET ( 5, 0, .BEHIND. ) ;
#78 = APPROVAL_STATUS ( 'not_yet_approved' ) ;
#79 = APPLICATION_CONTEXT ( 'configuration controlled 3d designs of mechanical parts and assemblies' ) ;
#80 = CARTESIAN_POINT ( 'NONE',  ( 0.0000000000000000000, 0.0000000000000000000, -0.5000000000000000000 ) ) ;
#81 = MANIFOLD_SOLID_BREP ( 'Revolve1', #47 ) ;
#82 = APPROVAL_ROLE ( '' ) ;
#83 = ADVANCED_BREP_SHAPE_REPRESENTATION ( 'Web Model 46664_45312', ( #81, #21 ), #162 ) ;
#84 = CC_DESIGN_APPROVAL ( #91, ( #103 ) ) ;
#85 = CIRCLE ( 'NONE', #20, 6.250000000000000000 ) ;
#86 = DIRECTION ( 'NONE',  ( 1.000000000000000000, 0.0000000000000000000, 0.0000000000000000000 ) ) ;
#87 = DATE_AND_TIME ( #153, #19 ) ;
#88 = AXIS2_PLACEMENT_3D ( 'NONE', #4, #23, #12 ) ;
#89 = DATE_TIME_ROLE ( 'classification_date' ) ;
#90 = APPROVAL_DATE_TIME ( #163, #91 ) ;
#91 = APPROVAL ( #31, 'UNSPECIFIED' ) ;
#92 = ADVANCED_FACE ( 'NONE', ( #6 ), #109, .F. ) ;
#93 = CARTESIAN_POINT ( 'NONE',  ( -6.250000000000000000, 7.654042494670957600E-016, 0.5000000000000000000 ) ) ;
#94 = LINE ( 'NONE', #73, #59 ) ;
#95 = PERSON_AND_ORGANIZATION_ROLE ( 'design_owner' ) ;
#96 = ORIENTED_EDGE ( 'NONE', *, *, #171, .F. ) ;
#97 = CARTESIAN_POINT ( 'NONE',  ( 0.0000000000000000000, 0.0000000000000000000, 0.0000000000000000000 ) ) ;
#98 = FACE_OUTER_BOUND ( 'NONE', #169, .T. ) ;
#99 = LOCAL_TIME ( 11, 39, 12.00000000000000000, #124 ) ;
#100 =( NAMED_UNIT ( * ) PLANE_ANGLE_UNIT ( ) SI_UNIT ( $, .RADIAN. ) );
#101 = ORIENTED_EDGE ( 'NONE', *, *, #27, .T. ) ;
#102 = CYLINDRICAL_SURFACE ( 'NONE', #126, 6.250000000000000000 ) ;
#103 = PRODUCT_DEFINITION_FORMATION_WITH_SPECIFIED_SOURCE ( 'ANY', '', #138, .NOT_KNOWN. ) ;
#104 = EDGE_CURVE ( 'NONE', #72, #175, #94, .T. ) ;
#105 = DIRECTION ( 'NONE',  ( 1.000000000000000000, 0.0000000000000000000, 0.0000000000000000000 ) ) ;
#106 = CARTESIAN_POINT ( 'NONE',  ( 0.0000000000000000000, 0.0000000000000000000, 0.5000000000000000000 ) ) ;
#107 = LOCAL_TIME ( 11, 39, 12.00000000000000000, #140 ) ;
#108 = CALENDAR_DATE ( 2017, 10, 4 ) ;
#109 = PLANE ( 'NONE',  #71 ) ;
#110 = DIRECTION ( 'NONE',  ( -0.0000000000000000000, -0.0000000000000000000, 1.000000000000000000 ) ) ;
#111 = PERSON_AND_ORGANIZATION ( #42, #172 ) ;
#112 = DIRECTION ( 'NONE',  ( 1.000000000000000000, 0.0000000000000000000, 0.0000000000000000000 ) ) ;
#113 = COORDINATED_UNIVERSAL_TIME_OFFSET ( 5, 0, .BEHIND. ) ;
#114 = CC_DESIGN_DATE_AND_TIME_ASSIGNMENT ( #87, #165, ( #70 ) ) ;
#115 = CALENDAR_DATE ( 2017, 10, 4 ) ;
#116 = APPROVAL_PERSON_ORGANIZATION ( #111, #91, #26 ) ;
#117 = LOCAL_TIME ( 11, 39, 12.00000000000000000, #35 ) ;
#118 = UNCERTAINTY_MEASURE_WITH_UNIT (LENGTH_MEASURE( 1.000000000000000100E-005 ), #2, 'distance_accuracy_value', 'NONE');
#119 = APPLICATION_CONTEXT ( 'configuration controlled 3d designs of mechanical parts and assemblies' ) ;
#120 = ORIENTED_EDGE ( 'NONE', *, *, #27, .F. ) ;
#121 = CALENDAR_DATE ( 2017, 10, 4 ) ;
#122 = CC_DESIGN_PERSON_AND_ORGANIZATION_ASSIGNMENT ( #60, #36, ( #70 ) ) ;
#123 = DIRECTION ( 'NONE',  ( -0.0000000000000000000, -0.0000000000000000000, 1.000000000000000000 ) ) ;
#124 = COORDINATED_UNIVERSAL_TIME_OFFSET ( 5, 0, .BEHIND. ) ;
#125 = DIRECTION ( 'NONE',  ( 1.000000000000000000, 0.0000000000000000000, 0.0000000000000000000 ) ) ;
#126 = AXIS2_PLACEMENT_3D ( 'NONE', #76, #69, #112 ) ;
#127 = CARTESIAN_POINT ( 'NONE',  ( -6.250000000000000000, 7.654042494670957600E-016, -0.5000000000000000000 ) ) ;
#128 = EDGE_LOOP ( 'NONE', ( #62, #101 ) ) ;
#129 = APPROVAL_STATUS ( 'not_yet_approved' ) ;
#130 = LOCAL_TIME ( 11, 39, 12.00000000000000000, #77 ) ;
#131 = CIRCLE ( 'NONE', #88, 6.250000000000000000 ) ;
#132 = AXIS2_PLACEMENT_3D ( 'NONE', #80, #66, #156 ) ;
#133 = ORIENTED_EDGE ( 'NONE', *, *, #104, .T. ) ;
#134 = PERSON_AND_ORGANIZATION ( #42, #172 ) ;
#135 = CARTESIAN_POINT ( 'NONE',  ( 0.0000000000000000000, 0.0000000000000000000, 0.0000000000000000000 ) ) ;
#136 = EDGE_LOOP ( 'NONE', ( #1, #133, #152, #67 ) ) ;
#137 = CARTESIAN_POINT ( 'NONE',  ( 0.0000000000000000000, 0.0000000000000000000, -0.5000000000000000000 ) ) ;
#138 = PRODUCT ( 'Web Model 46664_45312', 'Web Model 46664_45312', '', ( #167 ) ) ;
#139 = DIRECTION ( 'NONE',  ( 0.0000000000000000000, 0.0000000000000000000, 1.000000000000000000 ) ) ;
#140 = COORDINATED_UNIVERSAL_TIME_OFFSET ( 5, 0, .BEHIND. ) ;
#141 = CARTESIAN_POINT ( 'NONE',  ( 6.250000000000000000, 0.0000000000000000000, -0.5000000000000000000 ) ) ;
#142 = APPROVAL ( #78, 'UNSPECIFIED' ) ;
#143 = CIRCLE ( 'NONE', #14, 6.250000000000000000 ) ;
#144 = SHAPE_DEFINITION_REPRESENTATION ( #13, #83 ) ;
#145 = EDGE_CURVE ( 'NONE', #151, #17, #25, .T. ) ;
#146 = DIRECTION ( 'NONE',  ( -0.0000000000000000000, -0.0000000000000000000, 1.000000000000000000 ) ) ;
#147 = CIRCLE ( 'NONE', #63, 6.250000000000000000 ) ;
#148 = DIRECTION ( 'NONE',  ( 1.000000000000000000, 0.0000000000000000000, 0.0000000000000000000 ) ) ;
#149 = ADVANCED_FACE ( 'NONE', ( #64 ), #43, .T. ) ;
#150 = CC_DESIGN_APPROVAL ( #142, ( #70 ) ) ;
#151 = VERTEX_POINT ( 'NONE', #141 ) ;
#152 = ORIENTED_EDGE ( 'NONE', *, *, #5, .F. ) ;
#153 = CALENDAR_DATE ( 2017, 10, 4 ) ;
#154 = CC_DESIGN_PERSON_AND_ORGANIZATION_ASSIGNMENT ( #161, #40, ( #103 ) ) ;
#155 = APPLICATION_PROTOCOL_DEFINITION ( 'international standard', 'config_control_design', 1994, #79 ) ;
#156 = DIRECTION ( 'NONE',  ( 1.000000000000000000, 0.0000000000000000000, 0.0000000000000000000 ) ) ;
#157 = APPROVAL_DATE_TIME ( #58, #142 ) ;
#158 = ADVANCED_FACE ( 'NONE', ( #98 ), #24, .F. ) ;
#159 = DIRECTION ( 'NONE',  ( -1.000000000000000000, 0.0000000000000000000, -0.0000000000000000000 ) ) ;
#160 = PERSON_AND_ORGANIZATION ( #42, #172 ) ;
#161 = PERSON_AND_ORGANIZATION ( #42, #172 ) ;
#162 =( GEOMETRIC_REPRESENTATION_CONTEXT ( 3 ) GLOBAL_UNCERTAINTY_ASSIGNED_CONTEXT ( ( #118 ) ) GLOBAL_UNIT_ASSIGNED_CONTEXT ( ( #2, #100, #15 ) ) REPRESENTATION_CONTEXT ( 'NONE', 'WORKASPACE' ) );
#163 = DATE_AND_TIME ( #115, #130 ) ;
#164 = APPROVAL ( #129, 'UNSPECIFIED' ) ;
#165 = DATE_TIME_ROLE ( 'creation_date' ) ;
#166 = DESIGN_CONTEXT ( 'detailed design', #79, 'design' ) ;
#167 = MECHANICAL_CONTEXT ( 'NONE', #119, 'mechanical' ) ;
#168 = ORIENTED_EDGE ( 'NONE', *, *, #145, .T. ) ;
#169 = EDGE_LOOP ( 'NONE', ( #96, #10 ) ) ;
#170 = PERSON_AND_ORGANIZATION_ROLE ( 'classification_officer' ) ;
#171 = EDGE_CURVE ( 'NONE', #151, #72, #147, .T. ) ;
#172 = ORGANIZATION ( 'UNSPECIFIED', 'UNSPECIFIED', '' ) ;
#173 = DIRECTION ( 'NONE',  ( -0.0000000000000000000, -0.0000000000000000000, 1.000000000000000000 ) ) ;
#174 = CC_DESIGN_PERSON_AND_ORGANIZATION_ASSIGNMENT ( #160, #170, ( #16 ) ) ;
#175 = VERTEX_POINT ( 'NONE', #93 ) ;
ENDSEC;
END-ISO-10303-21;
