ISO-10303-21;
HEADER;
FILE_DESCRIPTION (( 'STEP AP203' ),
    '1' );
FILE_NAME ('Web Model 15425_15433.step',
    '2020-07-31T18:47:09',
    ( '' ),
    ( '' ),
    'SwSTEP 2.0',
    'SolidWorks 2018',
    '' );
FILE_SCHEMA (( 'CONFIG_CONTROL_DESIGN' ));
ENDSEC;

DATA;
#1 = ADVANCED_FACE ( 'NONE', ( #169 ), #78, .T. ) ;
#2 =( GEOMETRIC_REPRESENTATION_CONTEXT ( 3 ) GLOBAL_UNCERTAINTY_ASSIGNED_CONTEXT ( ( #6 ) ) GLOBAL_UNIT_ASSIGNED_CONTEXT ( ( #37, #93, #24 ) ) REPRESENTATION_CONTEXT ( 'NONE', 'WORKASPACE' ) );
#3 = ORGANIZATION ( 'UNSPECIFIED', 'UNSPECIFIED', '' ) ;
#4 = DATE_AND_TIME ( #82, #35 ) ;
#5 = LINE ( 'NONE', #77, #142 ) ;
#6 = UNCERTAINTY_MEASURE_WITH_UNIT (LENGTH_MEASURE( 1.000000000000000082E-05 ), #37, 'distance_accuracy_value', 'NONE');
#7 = AXIS2_PLACEMENT_3D ( 'NONE', #56, #118, #99 ) ;
#8 = CC_DESIGN_SECURITY_CLASSIFICATION ( #107, ( #85 ) ) ;
#9 = EDGE_LOOP ( 'NONE', ( #115, #161, #158, #73 ) ) ;
#10 = PERSON_AND_ORGANIZATION ( #25, #3 ) ;
#11 = EDGE_CURVE ( 'NONE', #101, #60, #5, .T. ) ;
#12 = PERSON_AND_ORGANIZATION_ROLE ( 'classification_officer' ) ;
#13 = COORDINATED_UNIVERSAL_TIME_OFFSET ( 5, 0, .BEHIND. ) ;
#14 = CC_DESIGN_APPROVAL ( #117, ( #107 ) ) ;
#15 = CIRCLE ( 'NONE', #125, 12.69999999999999929 ) ;
#16 = CALENDAR_DATE ( 2020, 31, 7 ) ;
#17 = CC_DESIGN_PERSON_AND_ORGANIZATION_ASSIGNMENT ( #10, #86, ( #74 ) ) ;
#18 = FACE_OUTER_BOUND ( 'NONE', #157, .T. ) ;
#19 = LOCAL_TIME ( 14, 47, 9.000000000000000000, #95 ) ;
#20 = CARTESIAN_POINT ( 'NONE',  ( 0.0000000000000000000, 0.0000000000000000000, -2.000000000000000000 ) ) ;
#21 = SHAPE_DEFINITION_REPRESENTATION ( #175, #42 ) ;
#22 = AXIS2_PLACEMENT_3D ( 'NONE', #79, #53, #106 ) ;
#23 = CLOSED_SHELL ( 'NONE', ( #124, #1, #59, #65 ) ) ;
#24 =( NAMED_UNIT ( * ) SI_UNIT ( $, .STERADIAN. ) SOLID_ANGLE_UNIT ( ) );
#25 = PERSON ( 'UNSPECIFIED', 'UNSPECIFIED', 'UNSPECIFIED', ('UNSPECIFIED'), ('UNSPECIFIED'), ('UNSPECIFIED') ) ;
#26 = CIRCLE ( 'NONE', #54, 12.69999999999999929 ) ;
#27 = PERSON_AND_ORGANIZATION ( #25, #3 ) ;
#28 = MANIFOLD_SOLID_BREP ( 'Boss-Extrude1', #23 ) ;
#29 = SECURITY_CLASSIFICATION_LEVEL ( 'unclassified' ) ;
#30 = CYLINDRICAL_SURFACE ( 'NONE', #149, 12.69999999999999929 ) ;
#31 = CIRCLE ( 'NONE', #144, 12.69999999999999929 ) ;
#32 = APPROVAL ( #58, 'UNSPECIFIED' ) ;
#33 = PERSON_AND_ORGANIZATION ( #25, #3 ) ;
#34 = CARTESIAN_POINT ( 'NONE',  ( 12.69999999999999929, 1.555301434917138433E-15, -2.000000000000000000 ) ) ;
#35 = LOCAL_TIME ( 14, 47, 9.000000000000000000, #151 ) ;
#36 = PERSON_AND_ORGANIZATION ( #25, #3 ) ;
#37 =( LENGTH_UNIT ( ) NAMED_UNIT ( * ) SI_UNIT ( .MILLI., .METRE. ) );
#38 = CC_DESIGN_PERSON_AND_ORGANIZATION_ASSIGNMENT ( #27, #160, ( #85 ) ) ;
#39 = AXIS2_PLACEMENT_3D ( 'NONE', #76, #47, #104 ) ;
#40 = CALENDAR_DATE ( 2020, 31, 7 ) ;
#41 = ORIENTED_EDGE ( 'NONE', *, *, #108, .F. ) ;
#42 = ADVANCED_BREP_SHAPE_REPRESENTATION ( 'Web Model 15425_15433', ( #28, #7 ), #2 ) ;
#43 = EDGE_CURVE ( 'NONE', #57, #60, #15, .T. ) ;
#44 = MECHANICAL_CONTEXT ( 'NONE', #135, 'mechanical' ) ;
#45 = CC_DESIGN_DATE_AND_TIME_ASSIGNMENT ( #4, #83, ( #74 ) ) ;
#46 = DIRECTION ( 'NONE',  ( -1.000000000000000000, 0.0000000000000000000, 0.0000000000000000000 ) ) ;
#47 = DIRECTION ( 'NONE',  ( 0.0000000000000000000, 0.0000000000000000000, 1.000000000000000000 ) ) ;
#48 = ORIENTED_EDGE ( 'NONE', *, *, #97, .T. ) ;
#49 = CARTESIAN_POINT ( 'NONE',  ( -12.69999999999999929, 0.0000000000000000000, -2.000000000000000000 ) ) ;
#50 = LOCAL_TIME ( 14, 47, 9.000000000000000000, #162 ) ;
#51 = DATE_AND_TIME ( #100, #119 ) ;
#52 = CC_DESIGN_PERSON_AND_ORGANIZATION_ASSIGNMENT ( #136, #96, ( #85 ) ) ;
#53 = DIRECTION ( 'NONE',  ( 0.0000000000000000000, 0.0000000000000000000, 1.000000000000000000 ) ) ;
#54 = AXIS2_PLACEMENT_3D ( 'NONE', #129, #113, #140 ) ;
#55 = APPROVAL_PERSON_ORGANIZATION ( #36, #117, #111 ) ;
#56 = CARTESIAN_POINT ( 'NONE',  ( 0.0000000000000000000, 0.0000000000000000000, 0.0000000000000000000 ) ) ;
#57 = VERTEX_POINT ( 'NONE', #49 ) ;
#58 = APPROVAL_STATUS ( 'not_yet_approved' ) ;
#59 = ADVANCED_FACE ( 'NONE', ( #69 ), #114, .T. ) ;
#60 = VERTEX_POINT ( 'NONE', #34 ) ;
#61 = APPROVAL_DATE_TIME ( #51, #32 ) ;
#62 = LINE ( 'NONE', #167, #127 ) ;
#63 = APPROVAL_DATE_TIME ( #110, #163 ) ;
#64 = CC_DESIGN_APPROVAL ( #163, ( #85 ) ) ;
#65 = ADVANCED_FACE ( 'NONE', ( #18 ), #112, .F. ) ;
#66 = AXIS2_PLACEMENT_3D ( 'NONE', #20, #141, #131 ) ;
#67 = DIRECTION ( 'NONE',  ( -0.0000000000000000000, -0.0000000000000000000, -1.000000000000000000 ) ) ;
#68 = CARTESIAN_POINT ( 'NONE',  ( -12.69999999999999929, 0.0000000000000000000, 2.000000000000000000 ) ) ;
#69 = FACE_OUTER_BOUND ( 'NONE', #137, .T. ) ;
#70 = ORIENTED_EDGE ( 'NONE', *, *, #168, .T. ) ;
#71 = ORIENTED_EDGE ( 'NONE', *, *, #75, .T. ) ;
#72 = APPROVAL_STATUS ( 'not_yet_approved' ) ;
#73 = ORIENTED_EDGE ( 'NONE', *, *, #168, .F. ) ;
#74 = PRODUCT_DEFINITION ( 'UNKNOWN', '', #85, #171 ) ;
#75 = EDGE_CURVE ( 'NONE', #101, #91, #26, .T. ) ;
#76 = CARTESIAN_POINT ( 'NONE',  ( 0.0000000000000000000, 0.0000000000000000000, 2.000000000000000000 ) ) ;
#77 = CARTESIAN_POINT ( 'NONE',  ( 12.69999999999999929, 1.555301434917138433E-15, 2.000000000000000000 ) ) ;
#78 = CYLINDRICAL_SURFACE ( 'NONE', #159, 12.69999999999999929 ) ;
#79 = CARTESIAN_POINT ( 'NONE',  ( 0.0000000000000000000, 0.0000000000000000000, 2.000000000000000000 ) ) ;
#80 = DIRECTION ( 'NONE',  ( 0.0000000000000000000, 0.0000000000000000000, 1.000000000000000000 ) ) ;
#81 = ORIENTED_EDGE ( 'NONE', *, *, #43, .T. ) ;
#82 = CALENDAR_DATE ( 2020, 31, 7 ) ;
#83 = DATE_TIME_ROLE ( 'creation_date' ) ;
#84 = ORIENTED_EDGE ( 'NONE', *, *, #97, .F. ) ;
#85 = PRODUCT_DEFINITION_FORMATION_WITH_SPECIFIED_SOURCE ( 'ANY', '', #147, .NOT_KNOWN. ) ;
#86 = PERSON_AND_ORGANIZATION_ROLE ( 'creator' ) ;
#87 = PERSON_AND_ORGANIZATION ( #25, #3 ) ;
#88 = APPROVAL_ROLE ( '' ) ;
#89 = DIRECTION ( 'NONE',  ( -0.0000000000000000000, -0.0000000000000000000, -1.000000000000000000 ) ) ;
#90 = PERSON_AND_ORGANIZATION ( #25, #3 ) ;
#91 = VERTEX_POINT ( 'NONE', #68 ) ;
#92 = CARTESIAN_POINT ( 'NONE',  ( 0.0000000000000000000, 0.0000000000000000000, 2.000000000000000000 ) ) ;
#93 =( NAMED_UNIT ( * ) PLANE_ANGLE_UNIT ( ) SI_UNIT ( $, .RADIAN. ) );
#94 = ORIENTED_EDGE ( 'NONE', *, *, #11, .F. ) ;
#95 = COORDINATED_UNIVERSAL_TIME_OFFSET ( 5, 0, .BEHIND. ) ;
#96 = PERSON_AND_ORGANIZATION_ROLE ( 'design_supplier' ) ;
#97 = EDGE_CURVE ( 'NONE', #91, #101, #121, .T. ) ;
#98 = APPROVAL_STATUS ( 'not_yet_approved' ) ;
#99 = DIRECTION ( 'NONE',  ( 1.000000000000000000, 0.0000000000000000000, 0.0000000000000000000 ) ) ;
#100 = CALENDAR_DATE ( 2020, 31, 7 ) ;
#101 = VERTEX_POINT ( 'NONE', #139 ) ;
#102 = CARTESIAN_POINT ( 'NONE',  ( 0.0000000000000000000, 0.0000000000000000000, -2.000000000000000000 ) ) ;
#103 = FACE_OUTER_BOUND ( 'NONE', #9, .T. ) ;
#104 = DIRECTION ( 'NONE',  ( 1.000000000000000000, 0.0000000000000000000, -0.0000000000000000000 ) ) ;
#105 = CARTESIAN_POINT ( 'NONE',  ( 0.0000000000000000000, 0.0000000000000000000, -2.000000000000000000 ) ) ;
#106 = DIRECTION ( 'NONE',  ( 1.000000000000000000, 0.0000000000000000000, 0.0000000000000000000 ) ) ;
#107 = SECURITY_CLASSIFICATION ( '', '', #29 ) ;
#108 = EDGE_CURVE ( 'NONE', #60, #57, #31, .T. ) ;
#109 = COORDINATED_UNIVERSAL_TIME_OFFSET ( 5, 0, .BEHIND. ) ;
#110 = DATE_AND_TIME ( #40, #19 ) ;
#111 = APPROVAL_ROLE ( '' ) ;
#112 = PLANE ( 'NONE',  #66 ) ;
#113 = DIRECTION ( 'NONE',  ( 0.0000000000000000000, 0.0000000000000000000, 1.000000000000000000 ) ) ;
#114 = PLANE ( 'NONE',  #39 ) ;
#115 = ORIENTED_EDGE ( 'NONE', *, *, #75, .F. ) ;
#116 = DATE_AND_TIME ( #146, #50 ) ;
#117 = APPROVAL ( #72, 'UNSPECIFIED' ) ;
#118 = DIRECTION ( 'NONE',  ( 0.0000000000000000000, 0.0000000000000000000, 1.000000000000000000 ) ) ;
#119 = LOCAL_TIME ( 14, 47, 9.000000000000000000, #109 ) ;
#120 = APPLICATION_PROTOCOL_DEFINITION ( 'international standard', 'config_control_design', 1994, #164 ) ;
#121 = CIRCLE ( 'NONE', #22, 12.69999999999999929 ) ;
#122 = CC_DESIGN_APPROVAL ( #32, ( #74 ) ) ;
#123 = ORIENTED_EDGE ( 'NONE', *, *, #43, .F. ) ;
#124 = ADVANCED_FACE ( 'NONE', ( #103 ), #30, .T. ) ;
#125 = AXIS2_PLACEMENT_3D ( 'NONE', #102, #143, #165 ) ;
#126 = CC_DESIGN_PERSON_AND_ORGANIZATION_ASSIGNMENT ( #90, #12, ( #107 ) ) ;
#127 = VECTOR ( 'NONE', #145, 1000.000000000000000 ) ;
#128 = APPROVAL_PERSON_ORGANIZATION ( #87, #163, #88 ) ;
#129 = CARTESIAN_POINT ( 'NONE',  ( 0.0000000000000000000, 0.0000000000000000000, 2.000000000000000000 ) ) ;
#130 = PRODUCT_RELATED_PRODUCT_CATEGORY ( 'detail', '', ( #147 ) ) ;
#131 = DIRECTION ( 'NONE',  ( 1.000000000000000000, 0.0000000000000000000, -0.0000000000000000000 ) ) ;
#132 = LOCAL_TIME ( 14, 47, 9.000000000000000000, #13 ) ;
#133 = DIRECTION ( 'NONE',  ( 1.000000000000000000, 0.0000000000000000000, 0.0000000000000000000 ) ) ;
#134 = DATE_AND_TIME ( #16, #132 ) ;
#135 = APPLICATION_CONTEXT ( 'configuration controlled 3d designs of mechanical parts and assemblies' ) ;
#136 = PERSON_AND_ORGANIZATION ( #25, #3 ) ;
#137 = EDGE_LOOP ( 'NONE', ( #48, #71 ) ) ;
#138 = PERSON_AND_ORGANIZATION ( #25, #3 ) ;
#139 = CARTESIAN_POINT ( 'NONE',  ( 12.69999999999999929, 1.555301434917138433E-15, 2.000000000000000000 ) ) ;
#140 = DIRECTION ( 'NONE',  ( 1.000000000000000000, 0.0000000000000000000, 0.0000000000000000000 ) ) ;
#141 = DIRECTION ( 'NONE',  ( 0.0000000000000000000, 0.0000000000000000000, 1.000000000000000000 ) ) ;
#142 = VECTOR ( 'NONE', #67, 1000.000000000000000 ) ;
#143 = DIRECTION ( 'NONE',  ( 0.0000000000000000000, 0.0000000000000000000, 1.000000000000000000 ) ) ;
#144 = AXIS2_PLACEMENT_3D ( 'NONE', #105, #80, #133 ) ;
#145 = DIRECTION ( 'NONE',  ( -0.0000000000000000000, -0.0000000000000000000, -1.000000000000000000 ) ) ;
#146 = CALENDAR_DATE ( 2020, 31, 7 ) ;
#147 = PRODUCT ( 'Web Model 15425_15433', 'Web Model 15425_15433', '', ( #44 ) ) ;
#148 = APPLICATION_PROTOCOL_DEFINITION ( 'international standard', 'config_control_design', 1994, #135 ) ;
#149 = AXIS2_PLACEMENT_3D ( 'NONE', #92, #170, #166 ) ;
#150 = DATE_TIME_ROLE ( 'classification_date' ) ;
#151 = COORDINATED_UNIVERSAL_TIME_OFFSET ( 5, 0, .BEHIND. ) ;
#152 = PERSON_AND_ORGANIZATION_ROLE ( 'design_owner' ) ;
#153 = CARTESIAN_POINT ( 'NONE',  ( 0.0000000000000000000, 0.0000000000000000000, 2.000000000000000000 ) ) ;
#154 = APPROVAL_DATE_TIME ( #134, #117 ) ;
#155 = APPROVAL_PERSON_ORGANIZATION ( #138, #32, #173 ) ;
#156 = CC_DESIGN_PERSON_AND_ORGANIZATION_ASSIGNMENT ( #33, #152, ( #147 ) ) ;
#157 = EDGE_LOOP ( 'NONE', ( #123, #41 ) ) ;
#158 = ORIENTED_EDGE ( 'NONE', *, *, #108, .T. ) ;
#159 = AXIS2_PLACEMENT_3D ( 'NONE', #153, #89, #46 ) ;
#160 = PERSON_AND_ORGANIZATION_ROLE ( 'creator' ) ;
#161 = ORIENTED_EDGE ( 'NONE', *, *, #11, .T. ) ;
#162 = COORDINATED_UNIVERSAL_TIME_OFFSET ( 5, 0, .BEHIND. ) ;
#163 = APPROVAL ( #98, 'UNSPECIFIED' ) ;
#164 = APPLICATION_CONTEXT ( 'configuration controlled 3d designs of mechanical parts and assemblies' ) ;
#165 = DIRECTION ( 'NONE',  ( 1.000000000000000000, 0.0000000000000000000, 0.0000000000000000000 ) ) ;
#166 = DIRECTION ( 'NONE',  ( -1.000000000000000000, 0.0000000000000000000, 0.0000000000000000000 ) ) ;
#167 = CARTESIAN_POINT ( 'NONE',  ( -12.69999999999999929, 0.0000000000000000000, 2.000000000000000000 ) ) ;
#168 = EDGE_CURVE ( 'NONE', #91, #57, #62, .T. ) ;
#169 = FACE_OUTER_BOUND ( 'NONE', #172, .T. ) ;
#170 = DIRECTION ( 'NONE',  ( -0.0000000000000000000, -0.0000000000000000000, -1.000000000000000000 ) ) ;
#171 = DESIGN_CONTEXT ( 'detailed design', #164, 'design' ) ;
#172 = EDGE_LOOP ( 'NONE', ( #94, #84, #70, #81 ) ) ;
#173 = APPROVAL_ROLE ( '' ) ;
#174 = CC_DESIGN_DATE_AND_TIME_ASSIGNMENT ( #116, #150, ( #107 ) ) ;
#175 = PRODUCT_DEFINITION_SHAPE ( 'NONE', 'NONE',  #74 ) ;
ENDSEC;
END-ISO-10303-21;
