ISO-10303-21;
HEADER;
FILE_DESCRIPTION (( 'STEP AP203' ),
    '1' );
FILE_NAME ('Web Model 49624.STEP',
    '2017-01-31T15:23:07',
    ( '' ),
    ( '' ),
    'SwSTEP 2.0',
    'SolidWorks 2016',
    '' );
FILE_SCHEMA (( 'CONFIG_CONTROL_DESIGN' ));
ENDSEC;

DATA;
#1 = DIRECTION ( 'NONE',  ( 1.000000000000000000, 0.0000000000000000000, 0.0000000000000000000 ) ) ;
#2 = CC_DESIGN_DATE_AND_TIME_ASSIGNMENT ( #47, #170, ( #209 ) ) ;
#3 = CARTESIAN_POINT ( 'NONE',  ( -6.250000000000000000, 6.250000000000000000, 3.000000000000000000 ) ) ;
#4 = ORIENTED_EDGE ( 'NONE', *, *, #23, .F. ) ;
#5 = EDGE_LOOP ( 'NONE', ( #117, #212, #22, #171 ) ) ;
#6 = APPROVAL_STATUS ( 'not_yet_approved' ) ;
#7 = FACE_OUTER_BOUND ( 'NONE', #189, .T. ) ;
#8 = CALENDAR_DATE ( 2017, 31, 1 ) ;
#9 = CARTESIAN_POINT ( 'NONE',  ( 0.0000000000000000000, 0.0000000000000000000, 0.0000000000000000000 ) ) ;
#10 = COORDINATED_UNIVERSAL_TIME_OFFSET ( 5, 0, .BEHIND. ) ;
#11 = EDGE_CURVE ( 'NONE', #160, #176, #64, .T. ) ;
#12 = APPROVAL_DATE_TIME ( #61, #178 ) ;
#13 = AXIS2_PLACEMENT_3D ( 'NONE', #224, #210, #58 ) ;
#14 = FACE_OUTER_BOUND ( 'NONE', #165, .T. ) ;
#15 = ORIENTED_EDGE ( 'NONE', *, *, #38, .F. ) ;
#16 = LINE ( 'NONE', #179, #185 ) ;
#17 = CC_DESIGN_PERSON_AND_ORGANIZATION_ASSIGNMENT ( #52, #63, ( #161 ) ) ;
#18 = CARTESIAN_POINT ( 'NONE',  ( 6.250000000000000000, -6.250000000000000000, 3.000000000000000000 ) ) ;
#19 = CARTESIAN_POINT ( 'NONE',  ( -6.250000000000000000, 6.250000000000000000, 3.000000000000000000 ) ) ;
#20 = DIRECTION ( 'NONE',  ( -0.0000000000000000000, -0.0000000000000000000, -1.000000000000000000 ) ) ;
#21 = ADVANCED_FACE ( 'NONE', ( #191 ), #55, .T. ) ;
#22 = ORIENTED_EDGE ( 'NONE', *, *, #173, .T. ) ;
#23 = EDGE_CURVE ( 'NONE', #160, #143, #103, .T. ) ;
#24 = PERSON_AND_ORGANIZATION_ROLE ( 'classification_officer' ) ;
#25 = APPROVAL_ROLE ( '' ) ;
#26 = SHAPE_DEFINITION_REPRESENTATION ( #70, #85 ) ;
#27 = EDGE_CURVE ( 'NONE', #143, #223, #16, .T. ) ;
#28 = ORIENTED_EDGE ( 'NONE', *, *, #23, .T. ) ;
#29 = VECTOR ( 'NONE', #101, 1000.000000000000000 ) ;
#30 = ORIENTED_EDGE ( 'NONE', *, *, #86, .T. ) ;
#31 = VERTEX_POINT ( 'NONE', #201 ) ;
#32 = DIRECTION ( 'NONE',  ( 1.000000000000000000, 0.0000000000000000000, 0.0000000000000000000 ) ) ;
#33 = PERSON_AND_ORGANIZATION ( #231, #37 ) ;
#34 = CARTESIAN_POINT ( 'NONE',  ( -6.250000000000000000, 6.250000000000000000, 0.0000000000000000000 ) ) ;
#35 = VERTEX_POINT ( 'NONE', #162 ) ;
#36 = ORIENTED_EDGE ( 'NONE', *, *, #38, .T. ) ;
#37 = ORGANIZATION ( 'UNSPECIFIED', 'UNSPECIFIED', '' ) ;
#38 = EDGE_CURVE ( 'NONE', #73, #97, #233, .T. ) ;
#39 = APPROVAL_STATUS ( 'not_yet_approved' ) ;
#40 = CC_DESIGN_DATE_AND_TIME_ASSIGNMENT ( #156, #225, ( #199 ) ) ;
#41 = PERSON_AND_ORGANIZATION_ROLE ( 'creator' ) ;
#42 = APPROVAL_DATE_TIME ( #192, #214 ) ;
#43 = LINE ( 'NONE', #100, #80 ) ;
#44 = EDGE_CURVE ( 'NONE', #97, #143, #206, .T. ) ;
#45 = ORIENTED_EDGE ( 'NONE', *, *, #27, .F. ) ;
#46 = PRODUCT ( 'Web Model 49624', 'Web Model 49624', '', ( #98 ) ) ;
#47 = DATE_AND_TIME ( #151, #146 ) ;
#48 = PLANE ( 'NONE',  #115 ) ;
#49 = EDGE_CURVE ( 'NONE', #176, #223, #99, .T. ) ;
#50 = ORIENTED_EDGE ( 'NONE', *, *, #173, .F. ) ;
#51 = FACE_OUTER_BOUND ( 'NONE', #68, .T. ) ;
#52 = PERSON_AND_ORGANIZATION ( #231, #37 ) ;
#53 = AXIS2_PLACEMENT_3D ( 'NONE', #9, #134, #152 ) ;
#54 = CARTESIAN_POINT ( 'NONE',  ( 6.250000000000000000, 6.250000000000000000, 0.0000000000000000000 ) ) ;
#55 = PLANE ( 'NONE',  #154 ) ;
#56 = CARTESIAN_POINT ( 'NONE',  ( -6.250000000000000000, -6.250000000000000000, 3.000000000000000000 ) ) ;
#57 = CARTESIAN_POINT ( 'NONE',  ( -6.250000000000000000, 6.250000000000000000, 3.000000000000000000 ) ) ;
#58 = DIRECTION ( 'NONE',  ( 1.000000000000000000, 0.0000000000000000000, 0.0000000000000000000 ) ) ;
#59 = ORIENTED_EDGE ( 'NONE', *, *, #109, .F. ) ;
#60 = CALENDAR_DATE ( 2017, 31, 1 ) ;
#61 = DATE_AND_TIME ( #220, #136 ) ;
#62 = APPROVAL_STATUS ( 'not_yet_approved' ) ;
#63 = PERSON_AND_ORGANIZATION_ROLE ( 'creator' ) ;
#64 = LINE ( 'NONE', #56, #236 ) ;
#65 = APPLICATION_CONTEXT ( 'configuration controlled 3d designs of mechanical parts and assemblies' ) ;
#66 = EDGE_CURVE ( 'NONE', #31, #35, #196, .T. ) ;
#67 = VECTOR ( 'NONE', #202, 1000.000000000000000 ) ;
#68 = EDGE_LOOP ( 'NONE', ( #159, #195, #116, #45 ) ) ;
#69 = APPROVAL ( #62, 'UNSPECIFIED' ) ;
#70 = PRODUCT_DEFINITION_SHAPE ( 'NONE', 'NONE',  #199 ) ;
#71 = ORIENTED_EDGE ( 'NONE', *, *, #49, .T. ) ;
#72 = DIRECTION ( 'NONE',  ( 0.0000000000000000000, -1.000000000000000000, 0.0000000000000000000 ) ) ;
#73 = VERTEX_POINT ( 'NONE', #19 ) ;
#74 = DIRECTION ( 'NONE',  ( -1.000000000000000000, -0.0000000000000000000, -0.0000000000000000000 ) ) ;
#75 = APPLICATION_PROTOCOL_DEFINITION ( 'international standard', 'config_control_design', 1994, #65 ) ;
#76 = CARTESIAN_POINT ( 'NONE',  ( -6.250000000000000000, -6.250000000000000000, 3.000000000000000000 ) ) ;
#77 = PERSON_AND_ORGANIZATION_ROLE ( 'design_supplier' ) ;
#78 = PRODUCT_RELATED_PRODUCT_CATEGORY ( 'detail', '', ( #46 ) ) ;
#79 = PERSON_AND_ORGANIZATION ( #231, #37 ) ;
#80 = VECTOR ( 'NONE', #74, 1000.000000000000000 ) ;
#81 = APPROVAL_DATE_TIME ( #87, #69 ) ;
#82 = MANIFOLD_SOLID_BREP ( 'Extrude1', #122 ) ;
#83 = DIRECTION ( 'NONE',  ( 1.000000000000000000, 0.0000000000000000000, -0.0000000000000000000 ) ) ;
#84 = APPROVAL_PERSON_ORGANIZATION ( #198, #214, #203 ) ;
#85 = ADVANCED_BREP_SHAPE_REPRESENTATION ( 'Web Model 49624', ( #82, #53 ), #105 ) ;
#86 = EDGE_CURVE ( 'NONE', #223, #35, #163, .T. ) ;
#87 = DATE_AND_TIME ( #102, #118 ) ;
#88 = DIRECTION ( 'NONE',  ( 1.000000000000000000, 0.0000000000000000000, 0.0000000000000000000 ) ) ;
#89 = COORDINATED_UNIVERSAL_TIME_OFFSET ( 5, 0, .BEHIND. ) ;
#90 = CARTESIAN_POINT ( 'NONE',  ( 6.250000000000000000, 6.250000000000000000, 3.000000000000000000 ) ) ;
#91 = ADVANCED_FACE ( 'NONE', ( #14 ), #166, .F. ) ;
#92 = AXIS2_PLACEMENT_3D ( 'NONE', #94, #128, #158 ) ;
#93 = APPROVAL_PERSON_ORGANIZATION ( #129, #178, #132 ) ;
#94 = CARTESIAN_POINT ( 'NONE',  ( 6.250000000000000000, 6.250000000000000000, 3.000000000000000000 ) ) ;
#95 = ADVANCED_FACE ( 'NONE', ( #120 ), #48, .F. ) ;
#96 = APPLICATION_PROTOCOL_DEFINITION ( 'international standard', 'config_control_design', 1994, #149 ) ;
#97 = VERTEX_POINT ( 'NONE', #193 ) ;
#98 = MECHANICAL_CONTEXT ( 'NONE', #65, 'mechanical' ) ;
#99 = LINE ( 'NONE', #18, #234 ) ;
#100 = CARTESIAN_POINT ( 'NONE',  ( -6.250000000000000000, 6.250000000000000000, 0.0000000000000000000 ) ) ;
#101 = DIRECTION ( 'NONE',  ( 0.0000000000000000000, -1.000000000000000000, 0.0000000000000000000 ) ) ;
#102 = CALENDAR_DATE ( 2017, 31, 1 ) ;
#103 = LINE ( 'NONE', #219, #213 ) ;
#104 = LOCAL_TIME ( 10, 23, 7.000000000000000000, #89 ) ;
#105 =( GEOMETRIC_REPRESENTATION_CONTEXT ( 3 ) GLOBAL_UNCERTAINTY_ASSIGNED_CONTEXT ( ( #139 ) ) GLOBAL_UNIT_ASSIGNED_CONTEXT ( ( #112, #113, #186 ) ) REPRESENTATION_CONTEXT ( 'NONE', 'WORKASPACE' ) );
#106 = CARTESIAN_POINT ( 'NONE',  ( -6.250000000000000000, -6.250000000000000000, 3.000000000000000000 ) ) ;
#107 = ORIENTED_EDGE ( 'NONE', *, *, #66, .T. ) ;
#108 = CARTESIAN_POINT ( 'NONE',  ( -6.250000000000000000, -6.250000000000000000, 3.000000000000000000 ) ) ;
#109 = EDGE_CURVE ( 'NONE', #31, #73, #155, .T. ) ;
#110 = EDGE_LOOP ( 'NONE', ( #211, #222, #150, #28 ) ) ;
#111 = DIRECTION ( 'NONE',  ( -0.0000000000000000000, 1.000000000000000000, -0.0000000000000000000 ) ) ;
#112 =( LENGTH_UNIT ( ) NAMED_UNIT ( * ) SI_UNIT ( .MILLI., .METRE. ) );
#113 =( NAMED_UNIT ( * ) PLANE_ANGLE_UNIT ( ) SI_UNIT ( $, .RADIAN. ) );
#114 = CC_DESIGN_APPROVAL ( #69, ( #199 ) ) ;
#115 = AXIS2_PLACEMENT_3D ( 'NONE', #106, #217, #141 ) ;
#116 = ORIENTED_EDGE ( 'NONE', *, *, #86, .F. ) ;
#117 = ORIENTED_EDGE ( 'NONE', *, *, #194, .T. ) ;
#118 = LOCAL_TIME ( 10, 23, 7.000000000000000000, #197 ) ;
#119 = CC_DESIGN_PERSON_AND_ORGANIZATION_ASSIGNMENT ( #33, #77, ( #161 ) ) ;
#120 = FACE_OUTER_BOUND ( 'NONE', #110, .T. ) ;
#121 = ORIENTED_EDGE ( 'NONE', *, *, #181, .T. ) ;
#122 = CLOSED_SHELL ( 'NONE', ( #130, #95, #91, #221, #21, #180 ) ) ;
#123 = DIRECTION ( 'NONE',  ( -0.0000000000000000000, -0.0000000000000000000, -1.000000000000000000 ) ) ;
#124 = AXIS2_PLACEMENT_3D ( 'NONE', #3, #167, #131 ) ;
#125 = DIRECTION ( 'NONE',  ( -0.0000000000000000000, 0.0000000000000000000, 1.000000000000000000 ) ) ;
#126 = LINE ( 'NONE', #169, #29 ) ;
#127 = CARTESIAN_POINT ( 'NONE',  ( -6.250000000000000000, -6.250000000000000000, 0.0000000000000000000 ) ) ;
#128 = DIRECTION ( 'NONE',  ( -1.000000000000000000, 0.0000000000000000000, 0.0000000000000000000 ) ) ;
#129 = PERSON_AND_ORGANIZATION ( #231, #37 ) ;
#130 = ADVANCED_FACE ( 'NONE', ( #7 ), #175, .F. ) ;
#131 = DIRECTION ( 'NONE',  ( 0.0000000000000000000, -0.0000000000000000000, -1.000000000000000000 ) ) ;
#132 = APPROVAL_ROLE ( '' ) ;
#133 = PERSON_AND_ORGANIZATION ( #231, #37 ) ;
#134 = DIRECTION ( 'NONE',  ( 0.0000000000000000000, 0.0000000000000000000, 1.000000000000000000 ) ) ;
#135 = COORDINATED_UNIVERSAL_TIME_OFFSET ( 5, 0, .BEHIND. ) ;
#136 = LOCAL_TIME ( 10, 23, 7.000000000000000000, #177 ) ;
#137 = ORIENTED_EDGE ( 'NONE', *, *, #194, .F. ) ;
#138 = DESIGN_CONTEXT ( 'detailed design', #149, 'design' ) ;
#139 = UNCERTAINTY_MEASURE_WITH_UNIT (LENGTH_MEASURE( 1.000000000000000100E-005 ), #112, 'distance_accuracy_value', 'NONE');
#140 = CC_DESIGN_PERSON_AND_ORGANIZATION_ASSIGNMENT ( #204, #41, ( #199 ) ) ;
#141 = DIRECTION ( 'NONE',  ( 0.0000000000000000000, -0.0000000000000000000, 1.000000000000000000 ) ) ;
#142 = DIRECTION ( 'NONE',  ( -1.000000000000000000, -0.0000000000000000000, -0.0000000000000000000 ) ) ;
#143 = VERTEX_POINT ( 'NONE', #127 ) ;
#144 = LINE ( 'NONE', #226, #183 ) ;
#145 = CC_DESIGN_APPROVAL ( #214, ( #209 ) ) ;
#146 = LOCAL_TIME ( 10, 23, 7.000000000000000000, #135 ) ;
#147 = DIRECTION ( 'NONE',  ( -0.0000000000000000000, -0.0000000000000000000, -1.000000000000000000 ) ) ;
#148 = DIRECTION ( 'NONE',  ( -0.0000000000000000000, 0.0000000000000000000, -1.000000000000000000 ) ) ;
#149 = APPLICATION_CONTEXT ( 'configuration controlled 3d designs of mechanical parts and assemblies' ) ;
#150 = ORIENTED_EDGE ( 'NONE', *, *, #11, .F. ) ;
#151 = CALENDAR_DATE ( 2017, 31, 1 ) ;
#152 = DIRECTION ( 'NONE',  ( 1.000000000000000000, 0.0000000000000000000, 0.0000000000000000000 ) ) ;
#153 = CC_DESIGN_PERSON_AND_ORGANIZATION_ASSIGNMENT ( #188, #168, ( #46 ) ) ;
#154 = AXIS2_PLACEMENT_3D ( 'NONE', #108, #125, #32 ) ;
#155 = LINE ( 'NONE', #57, #235 ) ;
#156 = DATE_AND_TIME ( #60, #172 ) ;
#157 = VECTOR ( 'NONE', #72, 1000.000000000000000 ) ;
#158 = DIRECTION ( 'NONE',  ( 0.0000000000000000000, 0.0000000000000000000, 1.000000000000000000 ) ) ;
#159 = ORIENTED_EDGE ( 'NONE', *, *, #44, .F. ) ;
#160 = VERTEX_POINT ( 'NONE', #76 ) ;
#161 = PRODUCT_DEFINITION_FORMATION_WITH_SPECIFIED_SOURCE ( 'ANY', '', #46, .NOT_KNOWN. ) ;
#162 = CARTESIAN_POINT ( 'NONE',  ( 6.250000000000000000, 6.250000000000000000, 0.0000000000000000000 ) ) ;
#163 = LINE ( 'NONE', #54, #67 ) ;
#164 = AXIS2_PLACEMENT_3D ( 'NONE', #216, #83, #148 ) ;
#165 = EDGE_LOOP ( 'NONE', ( #30, #230, #50, #71 ) ) ;
#166 = PLANE ( 'NONE',  #92 ) ;
#167 = DIRECTION ( 'NONE',  ( 0.0000000000000000000, -1.000000000000000000, 0.0000000000000000000 ) ) ;
#168 = PERSON_AND_ORGANIZATION_ROLE ( 'design_owner' ) ;
#169 = CARTESIAN_POINT ( 'NONE',  ( -6.250000000000000000, 6.250000000000000000, 3.000000000000000000 ) ) ;
#170 = DATE_TIME_ROLE ( 'classification_date' ) ;
#171 = ORIENTED_EDGE ( 'NONE', *, *, #109, .T. ) ;
#172 = LOCAL_TIME ( 10, 23, 7.000000000000000000, #10 ) ;
#173 = EDGE_CURVE ( 'NONE', #176, #31, #144, .T. ) ;
#174 = CC_DESIGN_APPROVAL ( #178, ( #161 ) ) ;
#175 = PLANE ( 'NONE',  #164 ) ;
#176 = VERTEX_POINT ( 'NONE', #208 ) ;
#177 = COORDINATED_UNIVERSAL_TIME_OFFSET ( 5, 0, .BEHIND. ) ;
#178 = APPROVAL ( #6, 'UNSPECIFIED' ) ;
#179 = CARTESIAN_POINT ( 'NONE',  ( -6.250000000000000000, -6.250000000000000000, 0.0000000000000000000 ) ) ;
#180 = ADVANCED_FACE ( 'NONE', ( #51 ), #182, .F. ) ;
#181 = EDGE_CURVE ( 'NONE', #35, #97, #43, .T. ) ;
#182 = PLANE ( 'NONE',  #13 ) ;
#183 = VECTOR ( 'NONE', #111, 1000.000000000000000 ) ;
#184 = SECURITY_CLASSIFICATION_LEVEL ( 'unclassified' ) ;
#185 = VECTOR ( 'NONE', #88, 1000.000000000000000 ) ;
#186 =( NAMED_UNIT ( * ) SI_UNIT ( $, .STERADIAN. ) SOLID_ANGLE_UNIT ( ) );
#187 = CC_DESIGN_PERSON_AND_ORGANIZATION_ASSIGNMENT ( #79, #24, ( #209 ) ) ;
#188 = PERSON_AND_ORGANIZATION ( #231, #37 ) ;
#189 = EDGE_LOOP ( 'NONE', ( #205, #4, #137, #36 ) ) ;
#190 = APPROVAL_PERSON_ORGANIZATION ( #133, #69, #25 ) ;
#191 = FACE_OUTER_BOUND ( 'NONE', #5, .T. ) ;
#192 = DATE_AND_TIME ( #8, #104 ) ;
#193 = CARTESIAN_POINT ( 'NONE',  ( -6.250000000000000000, 6.250000000000000000, 0.0000000000000000000 ) ) ;
#194 = EDGE_CURVE ( 'NONE', #73, #160, #126, .T. ) ;
#195 = ORIENTED_EDGE ( 'NONE', *, *, #181, .F. ) ;
#196 = LINE ( 'NONE', #90, #232 ) ;
#197 = COORDINATED_UNIVERSAL_TIME_OFFSET ( 5, 0, .BEHIND. ) ;
#198 = PERSON_AND_ORGANIZATION ( #231, #37 ) ;
#199 = PRODUCT_DEFINITION ( 'UNKNOWN', '', #161, #138 ) ;
#200 = DIRECTION ( 'NONE',  ( -0.0000000000000000000, -0.0000000000000000000, -1.000000000000000000 ) ) ;
#201 = CARTESIAN_POINT ( 'NONE',  ( 6.250000000000000000, 6.250000000000000000, 3.000000000000000000 ) ) ;
#202 = DIRECTION ( 'NONE',  ( -0.0000000000000000000, 1.000000000000000000, -0.0000000000000000000 ) ) ;
#203 = APPROVAL_ROLE ( '' ) ;
#204 = PERSON_AND_ORGANIZATION ( #231, #37 ) ;
#205 = ORIENTED_EDGE ( 'NONE', *, *, #44, .T. ) ;
#206 = LINE ( 'NONE', #34, #157 ) ;
#207 = PLANE ( 'NONE',  #124 ) ;
#208 = CARTESIAN_POINT ( 'NONE',  ( 6.250000000000000000, -6.250000000000000000, 3.000000000000000000 ) ) ;
#209 = SECURITY_CLASSIFICATION ( '', '', #184 ) ;
#210 = DIRECTION ( 'NONE',  ( -0.0000000000000000000, 0.0000000000000000000, 1.000000000000000000 ) ) ;
#211 = ORIENTED_EDGE ( 'NONE', *, *, #27, .T. ) ;
#212 = ORIENTED_EDGE ( 'NONE', *, *, #11, .T. ) ;
#213 = VECTOR ( 'NONE', #147, 1000.000000000000000 ) ;
#214 = APPROVAL ( #39, 'UNSPECIFIED' ) ;
#215 = EDGE_LOOP ( 'NONE', ( #121, #15, #59, #107 ) ) ;
#216 = CARTESIAN_POINT ( 'NONE',  ( -6.250000000000000000, 6.250000000000000000, 3.000000000000000000 ) ) ;
#217 = DIRECTION ( 'NONE',  ( 0.0000000000000000000, 1.000000000000000000, 0.0000000000000000000 ) ) ;
#218 = CARTESIAN_POINT ( 'NONE',  ( -6.250000000000000000, 6.250000000000000000, 3.000000000000000000 ) ) ;
#219 = CARTESIAN_POINT ( 'NONE',  ( -6.250000000000000000, -6.250000000000000000, 3.000000000000000000 ) ) ;
#220 = CALENDAR_DATE ( 2017, 31, 1 ) ;
#221 = ADVANCED_FACE ( 'NONE', ( #237 ), #207, .F. ) ;
#222 = ORIENTED_EDGE ( 'NONE', *, *, #49, .F. ) ;
#223 = VERTEX_POINT ( 'NONE', #228 ) ;
#224 = CARTESIAN_POINT ( 'NONE',  ( -6.250000000000000000, -6.250000000000000000, 0.0000000000000000000 ) ) ;
#225 = DATE_TIME_ROLE ( 'creation_date' ) ;
#226 = CARTESIAN_POINT ( 'NONE',  ( 6.250000000000000000, 6.250000000000000000, 3.000000000000000000 ) ) ;
#227 = VECTOR ( 'NONE', #200, 1000.000000000000000 ) ;
#228 = CARTESIAN_POINT ( 'NONE',  ( 6.250000000000000000, -6.250000000000000000, 0.0000000000000000000 ) ) ;
#229 = CC_DESIGN_SECURITY_CLASSIFICATION ( #209, ( #161 ) ) ;
#230 = ORIENTED_EDGE ( 'NONE', *, *, #66, .F. ) ;
#231 = PERSON ( 'UNSPECIFIED', 'UNSPECIFIED', 'UNSPECIFIED', ('UNSPECIFIED'), ('UNSPECIFIED'), ('UNSPECIFIED') ) ;
#232 = VECTOR ( 'NONE', #20, 1000.000000000000000 ) ;
#233 = LINE ( 'NONE', #218, #227 ) ;
#234 = VECTOR ( 'NONE', #123, 1000.000000000000000 ) ;
#235 = VECTOR ( 'NONE', #142, 1000.000000000000000 ) ;
#236 = VECTOR ( 'NONE', #1, 1000.000000000000000 ) ;
#237 = FACE_OUTER_BOUND ( 'NONE', #215, .T. ) ;
ENDSEC;
END-ISO-10303-21;
