ISO-10303-21;
HEADER;
FILE_DESCRIPTION (( 'STEP AP203' ),
    '1' );
FILE_NAME ('Web Model 55257MX_46076.step',
    '2017-10-30T13:17:07',
    ( '' ),
    ( '' ),
    'SwSTEP 2.0',
    'SolidWorks 2016',
    '' );
FILE_SCHEMA (( 'CONFIG_CONTROL_DESIGN' ));
ENDSEC;

DATA;
#1 = ORIENTED_EDGE ( 'NONE', *, *, #117, .T. ) ;
#2 = VECTOR ( 'NONE', #207, 1000.000000000000000 ) ;
#3 = ORIENTED_EDGE ( 'NONE', *, *, #223, .F. ) ;
#4 = VECTOR ( 'NONE', #122, 1000.000000000000000 ) ;
#5 = ADVANCED_BREP_SHAPE_REPRESENTATION ( 'Web Model 55257MX_46076', ( #173, #215 ), #200 ) ;
#6 = ORIENTED_EDGE ( 'NONE', *, *, #12, .F. ) ;
#7 = CARTESIAN_POINT ( 'NONE',  ( -15.00000000000000000, 14.99999999999999800, 4.750000000000000000 ) ) ;
#8 = DIRECTION ( 'NONE',  ( -0.0000000000000000000, -0.0000000000000000000, -1.000000000000000000 ) ) ;
#9 = LOCAL_TIME ( 9, 17, 7.000000000000000000, #62 ) ;
#10 = VERTEX_POINT ( 'NONE', #55 ) ;
#11 = APPROVAL_STATUS ( 'not_yet_approved' ) ;
#12 = EDGE_CURVE ( 'NONE', #144, #162, #40, .T. ) ;
#13 = EDGE_LOOP ( 'NONE', ( #99, #3, #42, #88 ) ) ;
#14 = APPROVAL_ROLE ( '' ) ;
#15 = APPROVAL_DATE_TIME ( #84, #38 ) ;
#16 = FACE_OUTER_BOUND ( 'NONE', #50, .T. ) ;
#17 = EDGE_LOOP ( 'NONE', ( #6, #186, #124, #153 ) ) ;
#18 = DIRECTION ( 'NONE',  ( 0.0000000000000000000, 1.000000000000000000, 0.0000000000000000000 ) ) ;
#19 = CARTESIAN_POINT ( 'NONE',  ( -15.00000000000000000, -15.00000000000000400, -4.750000000000000000 ) ) ;
#20 = PERSON_AND_ORGANIZATION ( #137, #236 ) ;
#21 = EDGE_CURVE ( 'NONE', #25, #135, #118, .T. ) ;
#22 = DIRECTION ( 'NONE',  ( 1.000000000000000000, 0.0000000000000000000, -0.0000000000000000000 ) ) ;
#23 = DIRECTION ( 'NONE',  ( 1.000000000000000000, 1.156482317317871500E-016, 0.0000000000000000000 ) ) ;
#24 = LINE ( 'NONE', #222, #72 ) ;
#25 = VERTEX_POINT ( 'NONE', #89 ) ;
#26 = CARTESIAN_POINT ( 'NONE',  ( 15.00000000000000400, -15.00000000000000000, 4.750000000000000000 ) ) ;
#27 = EDGE_CURVE ( 'NONE', #162, #25, #174, .T. ) ;
#28 = PERSON_AND_ORGANIZATION ( #137, #236 ) ;
#29 = DIRECTION ( 'NONE',  ( 0.0000000000000000000, 0.0000000000000000000, 1.000000000000000000 ) ) ;
#30 = PERSON_AND_ORGANIZATION_ROLE ( 'creator' ) ;
#31 = APPROVAL_STATUS ( 'not_yet_approved' ) ;
#32 = FACE_OUTER_BOUND ( 'NONE', #13, .T. ) ;
#33 = PERSON_AND_ORGANIZATION ( #137, #236 ) ;
#34 = CARTESIAN_POINT ( 'NONE',  ( 15.00000000000000400, -15.00000000000000000, 4.750000000000000000 ) ) ;
#35 = VECTOR ( 'NONE', #125, 1000.000000000000000 ) ;
#36 = EDGE_CURVE ( 'NONE', #135, #144, #86, .T. ) ;
#37 = EDGE_LOOP ( 'NONE', ( #87, #180, #220, #54 ) ) ;
#38 = APPROVAL ( #31, 'UNSPECIFIED' ) ;
#39 = PERSON_AND_ORGANIZATION ( #137, #236 ) ;
#40 = LINE ( 'NONE', #19, #101 ) ;
#41 = PRODUCT_DEFINITION_SHAPE ( 'NONE', 'NONE',  #76 ) ;
#42 = ORIENTED_EDGE ( 'NONE', *, *, #211, .F. ) ;
#43 = DIRECTION ( 'NONE',  ( -0.0000000000000000000, -0.0000000000000000000, -1.000000000000000000 ) ) ;
#44 = DIRECTION ( 'NONE',  ( 1.000000000000000000, 1.156482317317871500E-016, -0.0000000000000000000 ) ) ;
#45 = SHAPE_DEFINITION_REPRESENTATION ( #41, #5 ) ;
#46 = EDGE_LOOP ( 'NONE', ( #192, #234, #199, #127 ) ) ;
#47 =( NAMED_UNIT ( * ) PLANE_ANGLE_UNIT ( ) SI_UNIT ( $, .RADIAN. ) );
#48 = DIRECTION ( 'NONE',  ( 1.000000000000000000, 0.0000000000000000000, 0.0000000000000000000 ) ) ;
#49 = ADVANCED_FACE ( 'NONE', ( #32 ), #106, .F. ) ;
#50 = EDGE_LOOP ( 'NONE', ( #138, #74, #1, #169 ) ) ;
#51 = LINE ( 'NONE', #181, #2 ) ;
#52 = CC_DESIGN_SECURITY_CLASSIFICATION ( #204, ( #133 ) ) ;
#53 = DATE_AND_TIME ( #97, #105 ) ;
#54 = ORIENTED_EDGE ( 'NONE', *, *, #155, .T. ) ;
#55 = CARTESIAN_POINT ( 'NONE',  ( 15.00000000000000400, -15.00000000000000000, 4.750000000000000000 ) ) ;
#56 = PERSON_AND_ORGANIZATION ( #137, #236 ) ;
#57 = CARTESIAN_POINT ( 'NONE',  ( 0.0000000000000000000, 0.0000000000000000000, -4.750000000000000000 ) ) ;
#58 = DIRECTION ( 'NONE',  ( -0.0000000000000000000, -1.000000000000000000, -0.0000000000000000000 ) ) ;
#59 = PERSON_AND_ORGANIZATION ( #137, #236 ) ;
#60 = CARTESIAN_POINT ( 'NONE',  ( 15.00000000000000400, 15.00000000000000200, -4.750000000000000000 ) ) ;
#61 = CC_DESIGN_APPROVAL ( #38, ( #76 ) ) ;
#62 = COORDINATED_UNIVERSAL_TIME_OFFSET ( 5, 0, .BEHIND. ) ;
#63 = MECHANICAL_CONTEXT ( 'NONE', #111, 'mechanical' ) ;
#64 = PERSON_AND_ORGANIZATION_ROLE ( 'design_supplier' ) ;
#65 = PERSON_AND_ORGANIZATION_ROLE ( 'design_owner' ) ;
#66 = COORDINATED_UNIVERSAL_TIME_OFFSET ( 5, 0, .BEHIND. ) ;
#67 = VECTOR ( 'NONE', #78, 1000.000000000000000 ) ;
#68 = APPROVAL ( #208, 'UNSPECIFIED' ) ;
#69 = LOCAL_TIME ( 9, 17, 7.000000000000000000, #152 ) ;
#70 = EDGE_LOOP ( 'NONE', ( #230, #205, #156, #237 ) ) ;
#71 = EDGE_CURVE ( 'NONE', #115, #10, #81, .T. ) ;
#72 = VECTOR ( 'NONE', #8, 1000.000000000000000 ) ;
#73 = CARTESIAN_POINT ( 'NONE',  ( -15.00000000000000000, 14.99999999999999800, -4.750000000000000000 ) ) ;
#74 = ORIENTED_EDGE ( 'NONE', *, *, #71, .T. ) ;
#75 = PLANE ( 'NONE',  #151 ) ;
#76 = PRODUCT_DEFINITION ( 'UNKNOWN', '', #133, #187 ) ;
#77 = PLANE ( 'NONE',  #98 ) ;
#78 = DIRECTION ( 'NONE',  ( -0.0000000000000000000, -0.0000000000000000000, -1.000000000000000000 ) ) ;
#79 = LINE ( 'NONE', #109, #35 ) ;
#80 = CC_DESIGN_PERSON_AND_ORGANIZATION_ASSIGNMENT ( #110, #64, ( #133 ) ) ;
#81 = LINE ( 'NONE', #26, #195 ) ;
#82 = LOCAL_TIME ( 9, 17, 7.000000000000000000, #183 ) ;
#83 = ADVANCED_FACE ( 'NONE', ( #121 ), #77, .F. ) ;
#84 = DATE_AND_TIME ( #194, #9 ) ;
#85 = CARTESIAN_POINT ( 'NONE',  ( 0.0000000000000000000, 0.0000000000000000000, 0.0000000000000000000 ) ) ;
#86 = LINE ( 'NONE', #60, #216 ) ;
#87 = ORIENTED_EDGE ( 'NONE', *, *, #21, .T. ) ;
#88 = ORIENTED_EDGE ( 'NONE', *, *, #193, .T. ) ;
#89 = CARTESIAN_POINT ( 'NONE',  ( 15.00000000000000400, -15.00000000000000000, -4.750000000000000000 ) ) ;
#90 = PERSON_AND_ORGANIZATION ( #137, #236 ) ;
#91 = DIRECTION ( 'NONE',  ( 0.0000000000000000000, 0.0000000000000000000, -1.000000000000000000 ) ) ;
#92 = CARTESIAN_POINT ( 'NONE',  ( -15.00000000000000000, -15.00000000000000400, -4.750000000000000000 ) ) ;
#93 = DIRECTION ( 'NONE',  ( -1.000000000000000000, 0.0000000000000000000, 0.0000000000000000000 ) ) ;
#94 = CARTESIAN_POINT ( 'NONE',  ( 0.0000000000000000000, 0.0000000000000000000, 4.750000000000000000 ) ) ;
#95 = VECTOR ( 'NONE', #18, 1000.000000000000000 ) ;
#96 = CC_DESIGN_PERSON_AND_ORGANIZATION_ASSIGNMENT ( #20, #65, ( #130 ) ) ;
#97 = CALENDAR_DATE ( 2017, 30, 10 ) ;
#98 = AXIS2_PLACEMENT_3D ( 'NONE', #57, #185, #22 ) ;
#99 = ORIENTED_EDGE ( 'NONE', *, *, #12, .T. ) ;
#100 = EDGE_CURVE ( 'NONE', #107, #176, #79, .T. ) ;
#101 = VECTOR ( 'NONE', #158, 1000.000000000000000 ) ;
#102 = CARTESIAN_POINT ( 'NONE',  ( 15.00000000000000400, 15.00000000000000200, -4.750000000000000000 ) ) ;
#103 = CARTESIAN_POINT ( 'NONE',  ( -15.00000000000000000, -15.00000000000000400, 4.750000000000000000 ) ) ;
#104 = CARTESIAN_POINT ( 'NONE',  ( 15.00000000000000400, 15.00000000000000200, 4.750000000000000000 ) ) ;
#105 = LOCAL_TIME ( 9, 17, 7.000000000000000000, #197 ) ;
#106 = PLANE ( 'NONE',  #166 ) ;
#107 = VERTEX_POINT ( 'NONE', #161 ) ;
#108 = AXIS2_PLACEMENT_3D ( 'NONE', #104, #179, #23 ) ;
#109 = CARTESIAN_POINT ( 'NONE',  ( 15.00000000000000400, 15.00000000000000200, 4.750000000000000000 ) ) ;
#110 = PERSON_AND_ORGANIZATION ( #137, #236 ) ;
#111 = APPLICATION_CONTEXT ( 'configuration controlled 3d designs of mechanical parts and assemblies' ) ;
#112 = DATE_TIME_ROLE ( 'classification_date' ) ;
#113 = EDGE_CURVE ( 'NONE', #107, #135, #141, .T. ) ;
#114 = LOCAL_TIME ( 9, 17, 7.000000000000000000, #66 ) ;
#115 = VERTEX_POINT ( 'NONE', #206 ) ;
#116 = DIRECTION ( 'NONE',  ( -1.156482317317871500E-016, 1.000000000000000000, 0.0000000000000000000 ) ) ;
#117 = EDGE_CURVE ( 'NONE', #10, #107, #51, .T. ) ;
#118 = LINE ( 'NONE', #142, #95 ) ;
#119 = PRODUCT_RELATED_PRODUCT_CATEGORY ( 'detail', '', ( #130 ) ) ;
#120 = APPROVAL_DATE_TIME ( #170, #160 ) ;
#121 = FACE_OUTER_BOUND ( 'NONE', #17, .T. ) ;
#122 = DIRECTION ( 'NONE',  ( -0.0000000000000000000, -0.0000000000000000000, -1.000000000000000000 ) ) ;
#123 = DIRECTION ( 'NONE',  ( -1.000000000000000000, -1.156482317317871500E-016, 0.0000000000000000000 ) ) ;
#124 = ORIENTED_EDGE ( 'NONE', *, *, #21, .F. ) ;
#125 = DIRECTION ( 'NONE',  ( -1.000000000000000000, -1.156482317317871500E-016, 0.0000000000000000000 ) ) ;
#126 = CARTESIAN_POINT ( 'NONE',  ( -15.00000000000000000, 14.99999999999999800, 4.750000000000000000 ) ) ;
#127 = ORIENTED_EDGE ( 'NONE', *, *, #223, .T. ) ;
#128 = SECURITY_CLASSIFICATION_LEVEL ( 'unclassified' ) ;
#129 = APPLICATION_PROTOCOL_DEFINITION ( 'international standard', 'config_control_design', 1994, #149 ) ;
#130 = PRODUCT ( 'Web Model 55257MX_46076', 'Web Model 55257MX_46076', '', ( #63 ) ) ;
#131 = DATE_TIME_ROLE ( 'creation_date' ) ;
#132 = FACE_OUTER_BOUND ( 'NONE', #70, .T. ) ;
#133 = PRODUCT_DEFINITION_FORMATION_WITH_SPECIFIED_SOURCE ( 'ANY', '', #130, .NOT_KNOWN. ) ;
#134 = LINE ( 'NONE', #146, #165 ) ;
#135 = VERTEX_POINT ( 'NONE', #102 ) ;
#136 = APPLICATION_PROTOCOL_DEFINITION ( 'international standard', 'config_control_design', 1994, #111 ) ;
#137 = PERSON ( 'UNSPECIFIED', 'UNSPECIFIED', 'UNSPECIFIED', ('UNSPECIFIED'), ('UNSPECIFIED'), ('UNSPECIFIED') ) ;
#138 = ORIENTED_EDGE ( 'NONE', *, *, #211, .T. ) ;
#139 = AXIS2_PLACEMENT_3D ( 'NONE', #94, #201, #163 ) ;
#140 = CALENDAR_DATE ( 2017, 30, 10 ) ;
#141 = LINE ( 'NONE', #164, #67 ) ;
#142 = CARTESIAN_POINT ( 'NONE',  ( 15.00000000000000400, -15.00000000000000000, -4.750000000000000000 ) ) ;
#143 = CARTESIAN_POINT ( 'NONE',  ( 15.00000000000000400, -15.00000000000000000, 4.750000000000000000 ) ) ;
#144 = VERTEX_POINT ( 'NONE', #73 ) ;
#145 = PLANE ( 'NONE',  #139 ) ;
#146 = CARTESIAN_POINT ( 'NONE',  ( -15.00000000000000000, -15.00000000000000400, 4.750000000000000000 ) ) ;
#147 = CLOSED_SHELL ( 'NONE', ( #49, #231, #212, #189, #150, #83 ) ) ;
#148 = CC_DESIGN_APPROVAL ( #68, ( #204 ) ) ;
#149 = APPLICATION_CONTEXT ( 'configuration controlled 3d designs of mechanical parts and assemblies' ) ;
#150 = ADVANCED_FACE ( 'NONE', ( #16 ), #145, .T. ) ;
#151 = AXIS2_PLACEMENT_3D ( 'NONE', #202, #93, #226 ) ;
#152 = COORDINATED_UNIVERSAL_TIME_OFFSET ( 5, 0, .BEHIND. ) ;
#153 = ORIENTED_EDGE ( 'NONE', *, *, #27, .F. ) ;
#154 = PERSON_AND_ORGANIZATION_ROLE ( 'creator' ) ;
#155 = EDGE_CURVE ( 'NONE', #10, #25, #184, .T. ) ;
#156 = ORIENTED_EDGE ( 'NONE', *, *, #100, .F. ) ;
#157 = APPROVAL_PERSON_ORGANIZATION ( #28, #160, #14 ) ;
#158 = DIRECTION ( 'NONE',  ( -0.0000000000000000000, -1.000000000000000000, -0.0000000000000000000 ) ) ;
#159 = DIRECTION ( 'NONE',  ( 1.000000000000000000, 1.156482317317871500E-016, -0.0000000000000000000 ) ) ;
#160 = APPROVAL ( #11, 'UNSPECIFIED' ) ;
#161 = CARTESIAN_POINT ( 'NONE',  ( 15.00000000000000400, 15.00000000000000200, 4.750000000000000000 ) ) ;
#162 = VERTEX_POINT ( 'NONE', #92 ) ;
#163 = DIRECTION ( 'NONE',  ( 1.000000000000000000, 0.0000000000000000000, -0.0000000000000000000 ) ) ;
#164 = CARTESIAN_POINT ( 'NONE',  ( 15.00000000000000400, 15.00000000000000200, 4.750000000000000000 ) ) ;
#165 = VECTOR ( 'NONE', #58, 1000.000000000000000 ) ;
#166 = AXIS2_PLACEMENT_3D ( 'NONE', #103, #182, #91 ) ;
#167 = PLANE ( 'NONE',  #177 ) ;
#168 =( NAMED_UNIT ( * ) SI_UNIT ( $, .STERADIAN. ) SOLID_ANGLE_UNIT ( ) );
#169 = ORIENTED_EDGE ( 'NONE', *, *, #100, .T. ) ;
#170 = DATE_AND_TIME ( #213, #69 ) ;
#171 = VECTOR ( 'NONE', #44, 1000.000000000000000 ) ;
#172 = CC_DESIGN_PERSON_AND_ORGANIZATION_ASSIGNMENT ( #56, #210, ( #204 ) ) ;
#173 = MANIFOLD_SOLID_BREP ( 'Boss-Extrude1', #147 ) ;
#174 = LINE ( 'NONE', #218, #171 ) ;
#175 = APPROVAL_PERSON_ORGANIZATION ( #90, #68, #191 ) ;
#176 = VERTEX_POINT ( 'NONE', #126 ) ;
#177 = AXIS2_PLACEMENT_3D ( 'NONE', #34, #116, #227 ) ;
#178 = CC_DESIGN_PERSON_AND_ORGANIZATION_ASSIGNMENT ( #33, #30, ( #133 ) ) ;
#179 = DIRECTION ( 'NONE',  ( 1.156482317317871500E-016, -1.000000000000000000, 0.0000000000000000000 ) ) ;
#180 = ORIENTED_EDGE ( 'NONE', *, *, #113, .F. ) ;
#181 = CARTESIAN_POINT ( 'NONE',  ( 15.00000000000000400, -15.00000000000000000, 4.750000000000000000 ) ) ;
#182 = DIRECTION ( 'NONE',  ( 1.000000000000000000, 0.0000000000000000000, 0.0000000000000000000 ) ) ;
#183 = COORDINATED_UNIVERSAL_TIME_OFFSET ( 5, 0, .BEHIND. ) ;
#184 = LINE ( 'NONE', #143, #4 ) ;
#185 = DIRECTION ( 'NONE',  ( 0.0000000000000000000, -0.0000000000000000000, 1.000000000000000000 ) ) ;
#186 = ORIENTED_EDGE ( 'NONE', *, *, #36, .F. ) ;
#187 = DESIGN_CONTEXT ( 'detailed design', #149, 'design' ) ;
#188 = APPROVAL_ROLE ( '' ) ;
#189 = ADVANCED_FACE ( 'NONE', ( #132 ), #225, .F. ) ;
#190 = VECTOR ( 'NONE', #43, 1000.000000000000000 ) ;
#191 = APPROVAL_ROLE ( '' ) ;
#192 = ORIENTED_EDGE ( 'NONE', *, *, #27, .T. ) ;
#193 = EDGE_CURVE ( 'NONE', #176, #144, #219, .T. ) ;
#194 = CALENDAR_DATE ( 2017, 30, 10 ) ;
#195 = VECTOR ( 'NONE', #159, 1000.000000000000000 ) ;
#196 = CC_DESIGN_PERSON_AND_ORGANIZATION_ASSIGNMENT ( #39, #154, ( #76 ) ) ;
#197 = COORDINATED_UNIVERSAL_TIME_OFFSET ( 5, 0, .BEHIND. ) ;
#198 = FACE_OUTER_BOUND ( 'NONE', #46, .T. ) ;
#199 = ORIENTED_EDGE ( 'NONE', *, *, #71, .F. ) ;
#200 =( GEOMETRIC_REPRESENTATION_CONTEXT ( 3 ) GLOBAL_UNCERTAINTY_ASSIGNED_CONTEXT ( ( #229 ) ) GLOBAL_UNIT_ASSIGNED_CONTEXT ( ( #232, #47, #168 ) ) REPRESENTATION_CONTEXT ( 'NONE', 'WORKASPACE' ) );
#201 = DIRECTION ( 'NONE',  ( 0.0000000000000000000, -0.0000000000000000000, 1.000000000000000000 ) ) ;
#202 = CARTESIAN_POINT ( 'NONE',  ( 15.00000000000000400, -15.00000000000000000, 4.750000000000000000 ) ) ;
#203 = FACE_OUTER_BOUND ( 'NONE', #37, .T. ) ;
#204 = SECURITY_CLASSIFICATION ( '', '', #128 ) ;
#205 = ORIENTED_EDGE ( 'NONE', *, *, #193, .F. ) ;
#206 = CARTESIAN_POINT ( 'NONE',  ( -15.00000000000000000, -15.00000000000000400, 4.750000000000000000 ) ) ;
#207 = DIRECTION ( 'NONE',  ( 0.0000000000000000000, 1.000000000000000000, 0.0000000000000000000 ) ) ;
#208 = APPROVAL_STATUS ( 'not_yet_approved' ) ;
#209 = CC_DESIGN_DATE_AND_TIME_ASSIGNMENT ( #228, #131, ( #76 ) ) ;
#210 = PERSON_AND_ORGANIZATION_ROLE ( 'classification_officer' ) ;
#211 = EDGE_CURVE ( 'NONE', #176, #115, #134, .T. ) ;
#212 = ADVANCED_FACE ( 'NONE', ( #203 ), #75, .F. ) ;
#213 = CALENDAR_DATE ( 2017, 30, 10 ) ;
#214 = APPROVAL_PERSON_ORGANIZATION ( #59, #38, #188 ) ;
#215 = AXIS2_PLACEMENT_3D ( 'NONE', #85, #29, #48 ) ;
#216 = VECTOR ( 'NONE', #123, 1000.000000000000000 ) ;
#217 = CALENDAR_DATE ( 2017, 30, 10 ) ;
#218 = CARTESIAN_POINT ( 'NONE',  ( 15.00000000000000400, -15.00000000000000000, -4.750000000000000000 ) ) ;
#219 = LINE ( 'NONE', #7, #190 ) ;
#220 = ORIENTED_EDGE ( 'NONE', *, *, #117, .F. ) ;
#221 = CC_DESIGN_DATE_AND_TIME_ASSIGNMENT ( #53, #112, ( #204 ) ) ;
#222 = CARTESIAN_POINT ( 'NONE',  ( -15.00000000000000000, -15.00000000000000400, 4.750000000000000000 ) ) ;
#223 = EDGE_CURVE ( 'NONE', #115, #162, #24, .T. ) ;
#224 = APPROVAL_DATE_TIME ( #233, #68 ) ;
#225 = PLANE ( 'NONE',  #108 ) ;
#226 = DIRECTION ( 'NONE',  ( 0.0000000000000000000, 0.0000000000000000000, 1.000000000000000000 ) ) ;
#227 = DIRECTION ( 'NONE',  ( -1.000000000000000000, -1.156482317317871500E-016, 0.0000000000000000000 ) ) ;
#228 = DATE_AND_TIME ( #140, #114 ) ;
#229 = UNCERTAINTY_MEASURE_WITH_UNIT (LENGTH_MEASURE( 1.000000000000000100E-005 ), #232, 'distance_accuracy_value', 'NONE');
#230 = ORIENTED_EDGE ( 'NONE', *, *, #36, .T. ) ;
#231 = ADVANCED_FACE ( 'NONE', ( #198 ), #167, .F. ) ;
#232 =( LENGTH_UNIT ( ) NAMED_UNIT ( * ) SI_UNIT ( .MILLI., .METRE. ) );
#233 = DATE_AND_TIME ( #217, #82 ) ;
#234 = ORIENTED_EDGE ( 'NONE', *, *, #155, .F. ) ;
#235 = CC_DESIGN_APPROVAL ( #160, ( #133 ) ) ;
#236 = ORGANIZATION ( 'UNSPECIFIED', 'UNSPECIFIED', '' ) ;
#237 = ORIENTED_EDGE ( 'NONE', *, *, #113, .T. ) ;
ENDSEC;
END-ISO-10303-21;
