ISO-10303-21;
HEADER;
FILE_DESCRIPTION (( 'STEP AP203' ),
    '1' );
FILE_NAME ('Ø50mm High Energy Laser Line Polarizer_86711.step',
    '2018-07-19T13:01:54',
    ( '' ),
    ( '' ),
    'SwSTEP 2.0',
    'SolidWorks 2016',
    '' );
FILE_SCHEMA (( 'CONFIG_CONTROL_DESIGN' ));
ENDSEC;

DATA;
#1 = LOCAL_TIME ( 9, 1, 54.00000000000000000, #125 ) ;
#2 = ORIENTED_EDGE ( 'NONE', *, *, #53, .T. ) ;
#3 = CIRCLE ( 'NONE', #4, 0.9772922561023629200 ) ;
#4 = AXIS2_PLACEMENT_3D ( 'NONE', #104, #103, #146 ) ;
#5 = EDGE_LOOP ( 'NONE', ( #156, #226, #113, #222 ) ) ;
#6 = EDGE_CURVE ( 'NONE', #94, #126, #127, .T. ) ;
#7 = FACE_OUTER_BOUND ( 'NONE', #110, .T. ) ;
#8 = EDGE_CURVE ( 'NONE', #33, #266, #85, .T. ) ;
#9 = LINE ( 'NONE', #249, #171 ) ;
#10 = LOCAL_TIME ( 9, 1, 54.00000000000000000, #261 ) ;
#11 = CC_DESIGN_APPROVAL ( #201, ( #192 ) ) ;
#12 = CARTESIAN_POINT ( 'NONE',  ( -0.8596363832680253800, 1.220614474678271000, -0.2644985322991401100 ) ) ;
#13 = CONICAL_SURFACE ( 'NONE', #216, 0.9842519685039370400, 0.7853981633974482800 ) ;
#14 = CARTESIAN_POINT ( 'NONE',  ( -0.8596363832680253800, 1.220614474678271000, -0.4937592923385106800 ) ) ;
#15 = APPROVAL_ROLE ( '' ) ;
#16 = CARTESIAN_POINT ( 'NONE',  ( -0.8596363832680253800, 1.220614474678271000, -0.4937592923385106800 ) ) ;
#17 =( NAMED_UNIT ( * ) PLANE_ANGLE_UNIT ( ) SI_UNIT ( $, .RADIAN. ) );
#18 = EDGE_CURVE ( 'NONE', #233, #100, #124, .T. ) ;
#19 = DIRECTION ( 'NONE',  ( 0.0000000000000000000, 0.0000000000000000000, 1.000000000000000000 ) ) ;
#20 = CARTESIAN_POINT ( 'NONE',  ( 0.1246155852359116800, 1.220614474678271000, -0.2575388198975657700 ) ) ;
#21 = CARTESIAN_POINT ( 'NONE',  ( 0.0000000000000000000, 0.0000000000000000000, 0.0000000000000000000 ) ) ;
#22 = CARTESIAN_POINT ( 'NONE',  ( -0.8596363832680253800, 1.220614474678271000, -0.4937592923385106800 ) ) ;
#23 = DESIGN_CONTEXT ( 'detailed design', #275, 'design' ) ;
#24 = CONICAL_SURFACE ( 'NONE', #135, 0.9772922561023629200, 0.7853981633974385100 ) ;
#25 = PERSON_AND_ORGANIZATION ( #236, #73 ) ;
#26 = CARTESIAN_POINT ( 'NONE',  ( -0.8596363832680253800, 1.220614474678271000, -0.2575388198975657700 ) ) ;
#27 = VECTOR ( 'NONE', #230, 39.37007874015748100 ) ;
#28 = SECURITY_CLASSIFICATION ( '', '', #64 ) ;
#29 = LOCAL_TIME ( 9, 1, 54.00000000000000000, #153 ) ;
#30 = VECTOR ( 'NONE', #141, 39.37007874015748100 ) ;
#31 = PERSON_AND_ORGANIZATION ( #236, #73 ) ;
#32 = EDGE_CURVE ( 'NONE', #266, #94, #143, .T. ) ;
#33 = VERTEX_POINT ( 'NONE', #119 ) ;
#34 = VECTOR ( 'NONE', #158, 39.37007874015748100 ) ;
#35 = DIRECTION ( 'NONE',  ( -0.0000000000000000000, -0.0000000000000000000, 1.000000000000000000 ) ) ;
#36 = APPLICATION_CONTEXT ( 'configuration controlled 3d designs of mechanical parts and assemblies' ) ;
#37 = CARTESIAN_POINT ( 'NONE',  ( -1.843888351771962400, 1.220614474678271000, -0.4867995799369356800 ) ) ;
#38 = EDGE_CURVE ( 'NONE', #197, #52, #9, .T. ) ;
#39 = DIMENSIONAL_EXPONENTS ( 1.000000000000000000, 0.0000000000000000000, 0.0000000000000000000, 0.0000000000000000000, 0.0000000000000000000, 0.0000000000000000000, 0.0000000000000000000 ) ;
#40 = DIRECTION ( 'NONE',  ( 0.0000000000000000000, 0.0000000000000000000, 1.000000000000000000 ) ) ;
#41 = CALENDAR_DATE ( 2018, 19, 7 ) ;
#42 = PERSON_AND_ORGANIZATION_ROLE ( 'design_supplier' ) ;
#43 = DIRECTION ( 'NONE',  ( -1.000000000000000000, 0.0000000000000000000, 0.0000000000000000000 ) ) ;
#44 = DIRECTION ( 'NONE',  ( -0.7071067811865475700, 8.659560562354931600E-017, 0.7071067811865474600 ) ) ;
#45 = DIRECTION ( 'NONE',  ( -1.000000000000000000, 0.0000000000000000000, 0.0000000000000000000 ) ) ;
#46 = APPROVAL_PERSON_ORGANIZATION ( #31, #175, #15 ) ;
#47 = ORIENTED_EDGE ( 'NONE', *, *, #8, .F. ) ;
#48 = AXIS2_PLACEMENT_3D ( 'NONE', #250, #206, #277 ) ;
#49 = ORIENTED_EDGE ( 'NONE', *, *, #38, .F. ) ;
#50 = AXIS2_PLACEMENT_3D ( 'NONE', #12, #167, #272 ) ;
#51 = CC_DESIGN_DATE_AND_TIME_ASSIGNMENT ( #89, #66, ( #28 ) ) ;
#52 = VERTEX_POINT ( 'NONE', #102 ) ;
#53 = EDGE_CURVE ( 'NONE', #33, #197, #161, .T. ) ;
#54 = EDGE_CURVE ( 'NONE', #197, #94, #77, .T. ) ;
#55 = ORIENTED_EDGE ( 'NONE', *, *, #260, .F. ) ;
#56 = CIRCLE ( 'NONE', #273, 0.9772922561023620300 ) ;
#57 = AXIS2_PLACEMENT_3D ( 'NONE', #121, #80, #144 ) ;
#58 = PRODUCT_DEFINITION_SHAPE ( 'NONE', 'NONE',  #181 ) ;
#59 = DIRECTION ( 'NONE',  ( 1.000000000000000000, 0.0000000000000000000, 0.0000000000000000000 ) ) ;
#60 = PERSON_AND_ORGANIZATION_ROLE ( 'classification_officer' ) ;
#61 = CONICAL_SURFACE ( 'NONE', #48, 0.9842519685039370400, 0.7853981633974482800 ) ;
#62 = CLOSED_SHELL ( 'NONE', ( #162, #139, #118, #63, #157, #203, #208, #247 ) ) ;
#63 = ADVANCED_FACE ( 'NONE', ( #151 ), #149, .T. ) ;
#64 = SECURITY_CLASSIFICATION_LEVEL ( 'unclassified' ) ;
#65 = AXIS2_PLACEMENT_3D ( 'NONE', #87, #159, #165 ) ;
#66 = DATE_TIME_ROLE ( 'classification_date' ) ;
#67 = CARTESIAN_POINT ( 'NONE',  ( 0.1246155852359116800, 1.220614474678271000, -0.4867995799369356800 ) ) ;
#68 = LOCAL_TIME ( 9, 1, 54.00000000000000000, #112 ) ;
#69 = EDGE_LOOP ( 'NONE', ( #180, #194 ) ) ;
#70 = CARTESIAN_POINT ( 'NONE',  ( -0.8596363832680253800, 1.220614474678271000, -0.2575388198975657700 ) ) ;
#71 = CC_DESIGN_SECURITY_CLASSIFICATION ( #28, ( #192 ) ) ;
#72 = EDGE_CURVE ( 'NONE', #100, #52, #174, .T. ) ;
#73 = ORGANIZATION ( 'UNSPECIFIED', 'UNSPECIFIED', '' ) ;
#74 =( GEOMETRIC_REPRESENTATION_CONTEXT ( 3 ) GLOBAL_UNCERTAINTY_ASSIGNED_CONTEXT ( ( #200 ) ) GLOBAL_UNIT_ASSIGNED_CONTEXT ( ( #117, #17, #184 ) ) REPRESENTATION_CONTEXT ( 'NONE', 'WORKASPACE' ) );
#75 = PERSON_AND_ORGANIZATION ( #236, #73 ) ;
#76 = ORIENTED_EDGE ( 'NONE', *, *, #32, .F. ) ;
#77 = CIRCLE ( 'NONE', #50, 0.9842519685039370400 ) ;
#78 = ORIENTED_EDGE ( 'NONE', *, *, #18, .F. ) ;
#79 = CYLINDRICAL_SURFACE ( 'NONE', #241, 0.9842519685039370400 ) ;
#80 = DIRECTION ( 'NONE',  ( -0.0000000000000000000, -0.0000000000000000000, 1.000000000000000000 ) ) ;
#81 = EDGE_CURVE ( 'NONE', #94, #197, #114, .T. ) ;
#82 = PLANE ( 'NONE',  #120 ) ;
#83 = DATE_AND_TIME ( #93, #10 ) ;
#84 = CARTESIAN_POINT ( 'NONE',  ( -1.836928639370387400, 1.220614474678271000, -0.4937592923385106800 ) ) ;
#85 = CIRCLE ( 'NONE', #210, 0.9772922561023629200 ) ;
#86 =( LENGTH_UNIT ( ) NAMED_UNIT ( * ) SI_UNIT ( $, .METRE. ) );
#87 = CARTESIAN_POINT ( 'NONE',  ( -0.8596363832680253800, 1.220614474678271000, -0.2575388198975657700 ) ) ;
#88 = PRODUCT ( 'Ø50mm High Energy Laser Line Polarizer_86711', 'Ø50mm High Energy Laser Line Polarizer_86711', '', ( #123 ) ) ;
#89 = DATE_AND_TIME ( #172, #188 ) ;
#90 = AXIS2_PLACEMENT_3D ( 'NONE', #232, #252, #228 ) ;
#91 = DIRECTION ( 'NONE',  ( -1.000000000000000000, 0.0000000000000000000, 0.0000000000000000000 ) ) ;
#92 = AXIS2_PLACEMENT_3D ( 'NONE', #70, #227, #45 ) ;
#93 = CALENDAR_DATE ( 2018, 19, 7 ) ;
#94 = VERTEX_POINT ( 'NONE', #190 ) ;
#95 = EDGE_CURVE ( 'NONE', #126, #52, #195, .T. ) ;
#96 = PERSON_AND_ORGANIZATION ( #236, #73 ) ;
#97 = PERSON_AND_ORGANIZATION_ROLE ( 'creator' ) ;
#98 = DIRECTION ( 'NONE',  ( 1.000000000000000000, 0.0000000000000000000, 0.0000000000000000000 ) ) ;
#99 = CARTESIAN_POINT ( 'NONE',  ( 0.1176558728343366600, 1.220614474678271000, -0.4937592923385106800 ) ) ;
#100 = VERTEX_POINT ( 'NONE', #84 ) ;
#101 = FACE_OUTER_BOUND ( 'NONE', #225, .T. ) ;
#102 = CARTESIAN_POINT ( 'NONE',  ( -1.843888351771962400, 1.220614474678271000, -0.4867995799369356800 ) ) ;
#103 = DIRECTION ( 'NONE',  ( 0.0000000000000000000, 0.0000000000000000000, 1.000000000000000000 ) ) ;
#104 = CARTESIAN_POINT ( 'NONE',  ( -0.8596363832680253800, 1.220614474678271000, -0.2575388198975657700 ) ) ;
#105 = APPROVAL ( #183, 'UNSPECIFIED' ) ;
#106 = FACE_OUTER_BOUND ( 'NONE', #69, .T. ) ;
#107 = CIRCLE ( 'NONE', #57, 0.9842519685039370400 ) ;
#108 = AXIS2_PLACEMENT_3D ( 'NONE', #186, #35, #211 ) ;
#109 = PERSON_AND_ORGANIZATION ( #236, #73 ) ;
#110 = EDGE_LOOP ( 'NONE', ( #154, #133 ) ) ;
#111 = FACE_OUTER_BOUND ( 'NONE', #116, .T. ) ;
#112 = COORDINATED_UNIVERSAL_TIME_OFFSET ( 5, 0, .BEHIND. ) ;
#113 = ORIENTED_EDGE ( 'NONE', *, *, #95, .F. ) ;
#114 = CIRCLE ( 'NONE', #90, 0.9842519685039370400 ) ;
#115 = CARTESIAN_POINT ( 'NONE',  ( -0.8596363832680253800, 1.220614474678271000, -0.2575388198975657700 ) ) ;
#116 = EDGE_LOOP ( 'NONE', ( #55, #221, #187, #148 ) ) ;
#117 =( CONVERSION_BASED_UNIT ( 'INCH', #276 ) LENGTH_UNIT ( ) NAMED_UNIT ( #39 ) );
#118 = ADVANCED_FACE ( 'NONE', ( #169 ), #79, .T. ) ;
#119 = CARTESIAN_POINT ( 'NONE',  ( -1.836928639370388300, 1.220614474678271000, -0.2575388198975657700 ) ) ;
#120 = AXIS2_PLACEMENT_3D ( 'NONE', #229, #246, #258 ) ;
#121 = CARTESIAN_POINT ( 'NONE',  ( -0.8596363832680253800, 1.220614474678271000, -0.4867995799369356800 ) ) ;
#122 = DIRECTION ( 'NONE',  ( -0.0000000000000000000, -0.0000000000000000000, -1.000000000000000000 ) ) ;
#123 = MECHANICAL_CONTEXT ( 'NONE', #36, 'mechanical' ) ;
#124 = CIRCLE ( 'NONE', #253, 0.9772922561023620300 ) ;
#125 = COORDINATED_UNIVERSAL_TIME_OFFSET ( 5, 0, .BEHIND. ) ;
#126 = VERTEX_POINT ( 'NONE', #67 ) ;
#127 = LINE ( 'NONE', #20, #27 ) ;
#128 = CARTESIAN_POINT ( 'NONE',  ( 0.1176558728343374800, 1.220614474678271000, -0.2575388198975657700 ) ) ;
#129 = DIRECTION ( 'NONE',  ( 0.0000000000000000000, 0.0000000000000000000, -1.000000000000000000 ) ) ;
#130 = ORIENTED_EDGE ( 'NONE', *, *, #72, .F. ) ;
#131 = CC_DESIGN_APPROVAL ( #175, ( #28 ) ) ;
#132 = DATE_AND_TIME ( #244, #68 ) ;
#133 = ORIENTED_EDGE ( 'NONE', *, *, #260, .T. ) ;
#134 = FACE_OUTER_BOUND ( 'NONE', #5, .T. ) ;
#135 = AXIS2_PLACEMENT_3D ( 'NONE', #26, #129, #91 ) ;
#136 = APPROVAL_PERSON_ORGANIZATION ( #193, #201, #166 ) ;
#137 = ORIENTED_EDGE ( 'NONE', *, *, #81, .T. ) ;
#138 = DIRECTION ( 'NONE',  ( -0.7071067811865405800, 0.0000000000000000000, -0.7071067811865544600 ) ) ;
#139 = ADVANCED_FACE ( 'NONE', ( #134 ), #13, .T. ) ;
#140 = DIRECTION ( 'NONE',  ( 1.000000000000000000, 0.0000000000000000000, -0.0000000000000000000 ) ) ;
#141 = DIRECTION ( 'NONE',  ( 0.7071067811865405800, 8.659560562354847800E-017, -0.7071067811865544600 ) ) ;
#142 = PERSON_AND_ORGANIZATION_ROLE ( 'creator' ) ;
#143 = LINE ( 'NONE', #270, #30 ) ;
#144 = DIRECTION ( 'NONE',  ( 1.000000000000000000, 0.0000000000000000000, 0.0000000000000000000 ) ) ;
#145 = APPROVAL_DATE_TIME ( #179, #201 ) ;
#146 = DIRECTION ( 'NONE',  ( 1.000000000000000000, 0.0000000000000000000, 0.0000000000000000000 ) ) ;
#147 = AXIS2_PLACEMENT_3D ( 'NONE', #21, #19, #191 ) ;
#148 = ORIENTED_EDGE ( 'NONE', *, *, #53, .F. ) ;
#149 = CYLINDRICAL_SURFACE ( 'NONE', #65, 0.9842519685039370400 ) ;
#150 = ORIENTED_EDGE ( 'NONE', *, *, #81, .F. ) ;
#151 = FACE_OUTER_BOUND ( 'NONE', #274, .T. ) ;
#152 = EDGE_LOOP ( 'NONE', ( #130, #78, #268, #173 ) ) ;
#153 = COORDINATED_UNIVERSAL_TIME_OFFSET ( 5, 0, .BEHIND. ) ;
#154 = ORIENTED_EDGE ( 'NONE', *, *, #8, .T. ) ;
#155 = DATE_AND_TIME ( #41, #1 ) ;
#156 = ORIENTED_EDGE ( 'NONE', *, *, #196, .F. ) ;
#157 = ADVANCED_FACE ( 'NONE', ( #7 ), #82, .T. ) ;
#158 = DIRECTION ( 'NONE',  ( 0.7071067811865475700, 0.0000000000000000000, 0.7071067811865474600 ) ) ;
#159 = DIRECTION ( 'NONE',  ( -0.0000000000000000000, -0.0000000000000000000, -1.000000000000000000 ) ) ;
#160 = ORIENTED_EDGE ( 'NONE', *, *, #95, .T. ) ;
#161 = LINE ( 'NONE', #278, #177 ) ;
#162 = ADVANCED_FACE ( 'NONE', ( #111 ), #24, .T. ) ;
#163 = DATE_TIME_ROLE ( 'creation_date' ) ;
#164 = APPLICATION_PROTOCOL_DEFINITION ( 'international standard', 'config_control_design', 1994, #275 ) ;
#165 = DIRECTION ( 'NONE',  ( -1.000000000000000000, 0.0000000000000000000, 0.0000000000000000000 ) ) ;
#166 = APPROVAL_ROLE ( '' ) ;
#167 = DIRECTION ( 'NONE',  ( 0.0000000000000000000, 0.0000000000000000000, -1.000000000000000000 ) ) ;
#168 = APPLICATION_PROTOCOL_DEFINITION ( 'international standard', 'config_control_design', 1994, #36 ) ;
#169 = FACE_OUTER_BOUND ( 'NONE', #218, .T. ) ;
#170 = CC_DESIGN_PERSON_AND_ORGANIZATION_ASSIGNMENT ( #214, #213, ( #88 ) ) ;
#171 = VECTOR ( 'NONE', #122, 39.37007874015748100 ) ;
#172 = CALENDAR_DATE ( 2018, 19, 7 ) ;
#173 = ORIENTED_EDGE ( 'NONE', *, *, #237, .F. ) ;
#174 = LINE ( 'NONE', #37, #220 ) ;
#175 = APPROVAL ( #212, 'UNSPECIFIED' ) ;
#176 = ORIENTED_EDGE ( 'NONE', *, *, #6, .F. ) ;
#177 = VECTOR ( 'NONE', #138, 39.37007874015748100 ) ;
#178 = SHAPE_DEFINITION_REPRESENTATION ( #58, #238 ) ;
#179 = DATE_AND_TIME ( #199, #29 ) ;
#180 = ORIENTED_EDGE ( 'NONE', *, *, #18, .T. ) ;
#181 = PRODUCT_DEFINITION ( 'UNKNOWN', '', #192, #23 ) ;
#182 = DIRECTION ( 'NONE',  ( -0.0000000000000000000, -0.0000000000000000000, 1.000000000000000000 ) ) ;
#183 = APPROVAL_STATUS ( 'not_yet_approved' ) ;
#184 =( NAMED_UNIT ( * ) SI_UNIT ( $, .STERADIAN. ) SOLID_ANGLE_UNIT ( ) );
#185 = CARTESIAN_POINT ( 'NONE',  ( -0.8596363832680253800, 1.220614474678271000, -0.2575388198975657700 ) ) ;
#186 = CARTESIAN_POINT ( 'NONE',  ( -0.8596363832680253800, 1.220614474678271000, -0.4867995799369356800 ) ) ;
#187 = ORIENTED_EDGE ( 'NONE', *, *, #54, .F. ) ;
#188 = LOCAL_TIME ( 9, 1, 54.00000000000000000, #231 ) ;
#189 = DIRECTION ( 'NONE',  ( 0.0000000000000000000, 0.0000000000000000000, 1.000000000000000000 ) ) ;
#190 = CARTESIAN_POINT ( 'NONE',  ( 0.1246155852359116800, 1.220614474678271000, -0.2644985322991401100 ) ) ;
#191 = DIRECTION ( 'NONE',  ( 1.000000000000000000, 0.0000000000000000000, 0.0000000000000000000 ) ) ;
#192 = PRODUCT_DEFINITION_FORMATION_WITH_SPECIFIED_SOURCE ( 'ANY', '', #88, .NOT_KNOWN. ) ;
#193 = PERSON_AND_ORGANIZATION ( #236, #73 ) ;
#194 = ORIENTED_EDGE ( 'NONE', *, *, #196, .T. ) ;
#195 = CIRCLE ( 'NONE', #108, 0.9842519685039370400 ) ;
#196 = EDGE_CURVE ( 'NONE', #100, #233, #56, .T. ) ;
#197 = VERTEX_POINT ( 'NONE', #262 ) ;
#198 = CC_DESIGN_APPROVAL ( #105, ( #181 ) ) ;
#199 = CALENDAR_DATE ( 2018, 19, 7 ) ;
#200 = UNCERTAINTY_MEASURE_WITH_UNIT (LENGTH_MEASURE( 1.000000000000000100E-005 ), #117, 'distance_accuracy_value', 'NONE');
#201 = APPROVAL ( #248, 'UNSPECIFIED' ) ;
#202 = PERSON_AND_ORGANIZATION ( #236, #73 ) ;
#203 = ADVANCED_FACE ( 'NONE', ( #106 ), #254, .F. ) ;
#204 = EDGE_CURVE ( 'NONE', #233, #126, #235, .T. ) ;
#205 = DIRECTION ( 'NONE',  ( 1.000000000000000000, 0.0000000000000000000, 0.0000000000000000000 ) ) ;
#206 = DIRECTION ( 'NONE',  ( -0.0000000000000000000, -0.0000000000000000000, 1.000000000000000000 ) ) ;
#207 = DIRECTION ( 'NONE',  ( -0.0000000000000000000, -0.0000000000000000000, -1.000000000000000000 ) ) ;
#208 = ADVANCED_FACE ( 'NONE', ( #269 ), #61, .T. ) ;
#209 = CARTESIAN_POINT ( 'NONE',  ( -0.8596363832680253800, 1.220614474678271000, -0.4867995799369356800 ) ) ;
#210 = AXIS2_PLACEMENT_3D ( 'NONE', #115, #40, #59 ) ;
#211 = DIRECTION ( 'NONE',  ( 1.000000000000000000, 0.0000000000000000000, 0.0000000000000000000 ) ) ;
#212 = APPROVAL_STATUS ( 'not_yet_approved' ) ;
#213 = PERSON_AND_ORGANIZATION_ROLE ( 'design_owner' ) ;
#214 = PERSON_AND_ORGANIZATION ( #236, #73 ) ;
#215 = CC_DESIGN_PERSON_AND_ORGANIZATION_ASSIGNMENT ( #96, #97, ( #181 ) ) ;
#216 = AXIS2_PLACEMENT_3D ( 'NONE', #209, #182, #205 ) ;
#217 = ORIENTED_EDGE ( 'NONE', *, *, #38, .T. ) ;
#218 = EDGE_LOOP ( 'NONE', ( #245, #240, #160, #49 ) ) ;
#219 = CC_DESIGN_PERSON_AND_ORGANIZATION_ASSIGNMENT ( #202, #142, ( #192 ) ) ;
#220 = VECTOR ( 'NONE', #44, 39.37007874015748100 ) ;
#221 = ORIENTED_EDGE ( 'NONE', *, *, #32, .T. ) ;
#222 = ORIENTED_EDGE ( 'NONE', *, *, #204, .F. ) ;
#223 = APPROVAL_ROLE ( '' ) ;
#224 = CC_DESIGN_DATE_AND_TIME_ASSIGNMENT ( #83, #163, ( #181 ) ) ;
#225 = EDGE_LOOP ( 'NONE', ( #76, #47, #2, #150 ) ) ;
#226 = ORIENTED_EDGE ( 'NONE', *, *, #72, .T. ) ;
#227 = DIRECTION ( 'NONE',  ( 0.0000000000000000000, 0.0000000000000000000, -1.000000000000000000 ) ) ;
#228 = DIRECTION ( 'NONE',  ( 1.000000000000000000, 0.0000000000000000000, 0.0000000000000000000 ) ) ;
#229 = CARTESIAN_POINT ( 'NONE',  ( -0.8596363832680253800, 1.220614474678271000, -0.2575388198975657700 ) ) ;
#230 = DIRECTION ( 'NONE',  ( -0.0000000000000000000, -0.0000000000000000000, -1.000000000000000000 ) ) ;
#231 = COORDINATED_UNIVERSAL_TIME_OFFSET ( 5, 0, .BEHIND. ) ;
#232 = CARTESIAN_POINT ( 'NONE',  ( -0.8596363832680253800, 1.220614474678271000, -0.2644985322991401100 ) ) ;
#233 = VERTEX_POINT ( 'NONE', #99 ) ;
#234 = AXIS2_PLACEMENT_3D ( 'NONE', #14, #189, #140 ) ;
#235 = LINE ( 'NONE', #263, #34 ) ;
#236 = PERSON ( 'UNSPECIFIED', 'UNSPECIFIED', 'UNSPECIFIED', ('UNSPECIFIED'), ('UNSPECIFIED'), ('UNSPECIFIED') ) ;
#237 = EDGE_CURVE ( 'NONE', #52, #126, #107, .T. ) ;
#238 = ADVANCED_BREP_SHAPE_REPRESENTATION ( '+50mm High Energy Laser Line Polarizer_86711', ( #251, #147 ), #74 ) ;
#239 = APPROVAL_PERSON_ORGANIZATION ( #109, #105, #223 ) ;
#240 = ORIENTED_EDGE ( 'NONE', *, *, #6, .T. ) ;
#241 = AXIS2_PLACEMENT_3D ( 'NONE', #185, #255, #43 ) ;
#242 = APPROVAL_DATE_TIME ( #132, #175 ) ;
#243 = CC_DESIGN_PERSON_AND_ORGANIZATION_ASSIGNMENT ( #25, #42, ( #192 ) ) ;
#244 = CALENDAR_DATE ( 2018, 19, 7 ) ;
#245 = ORIENTED_EDGE ( 'NONE', *, *, #54, .T. ) ;
#246 = DIRECTION ( 'NONE',  ( 0.0000000000000000000, 0.0000000000000000000, 1.000000000000000000 ) ) ;
#247 = ADVANCED_FACE ( 'NONE', ( #101 ), #259, .T. ) ;
#248 = APPROVAL_STATUS ( 'not_yet_approved' ) ;
#249 = CARTESIAN_POINT ( 'NONE',  ( -1.843888351771962400, 1.220614474678271000, -0.2575388198975657700 ) ) ;
#250 = CARTESIAN_POINT ( 'NONE',  ( -0.8596363832680253800, 1.220614474678271000, -0.4867995799369356800 ) ) ;
#251 = MANIFOLD_SOLID_BREP ( '83977410-1-solid1', #62 ) ;
#252 = DIRECTION ( 'NONE',  ( 0.0000000000000000000, 0.0000000000000000000, -1.000000000000000000 ) ) ;
#253 = AXIS2_PLACEMENT_3D ( 'NONE', #16, #207, #98 ) ;
#254 = PLANE ( 'NONE',  #234 ) ;
#255 = DIRECTION ( 'NONE',  ( -0.0000000000000000000, -0.0000000000000000000, -1.000000000000000000 ) ) ;
#256 = DIRECTION ( 'NONE',  ( -0.0000000000000000000, -0.0000000000000000000, -1.000000000000000000 ) ) ;
#257 = CC_DESIGN_PERSON_AND_ORGANIZATION_ASSIGNMENT ( #75, #60, ( #28 ) ) ;
#258 = DIRECTION ( 'NONE',  ( 1.000000000000000000, 0.0000000000000000000, -0.0000000000000000000 ) ) ;
#259 = CONICAL_SURFACE ( 'NONE', #92, 0.9772922561023629200, 0.7853981633974385100 ) ;
#260 = EDGE_CURVE ( 'NONE', #266, #33, #3, .T. ) ;
#261 = COORDINATED_UNIVERSAL_TIME_OFFSET ( 5, 0, .BEHIND. ) ;
#262 = CARTESIAN_POINT ( 'NONE',  ( -1.843888351771962400, 1.220614474678271000, -0.2644985322991401100 ) ) ;
#263 = CARTESIAN_POINT ( 'NONE',  ( 0.1246155852359116800, 1.220614474678271000, -0.4867995799369356800 ) ) ;
#264 = APPROVAL_DATE_TIME ( #155, #105 ) ;
#265 = ORIENTED_EDGE ( 'NONE', *, *, #237, .T. ) ;
#266 = VERTEX_POINT ( 'NONE', #128 ) ;
#267 = PRODUCT_RELATED_PRODUCT_CATEGORY ( 'detail', '', ( #88 ) ) ;
#268 = ORIENTED_EDGE ( 'NONE', *, *, #204, .T. ) ;
#269 = FACE_OUTER_BOUND ( 'NONE', #152, .T. ) ;
#270 = CARTESIAN_POINT ( 'NONE',  ( 0.1176558728343374800, 1.220614474678271000, -0.2575388198975657700 ) ) ;
#271 = DIRECTION ( 'NONE',  ( 1.000000000000000000, 0.0000000000000000000, 0.0000000000000000000 ) ) ;
#272 = DIRECTION ( 'NONE',  ( 1.000000000000000000, 0.0000000000000000000, 0.0000000000000000000 ) ) ;
#273 = AXIS2_PLACEMENT_3D ( 'NONE', #22, #256, #271 ) ;
#274 = EDGE_LOOP ( 'NONE', ( #176, #137, #217, #265 ) ) ;
#275 = APPLICATION_CONTEXT ( 'configuration controlled 3d designs of mechanical parts and assemblies' ) ;
#276 = LENGTH_MEASURE_WITH_UNIT ( LENGTH_MEASURE( 0.02539999999999999900 ), #86 );
#277 = DIRECTION ( 'NONE',  ( 1.000000000000000000, 0.0000000000000000000, 0.0000000000000000000 ) ) ;
#278 = CARTESIAN_POINT ( 'NONE',  ( -1.836928639370388300, 1.220614474678271000, -0.2575388198975657700 ) ) ;
ENDSEC;
END-ISO-10303-21;
