ISO-10303-21;
HEADER;
FILE_DESCRIPTION (( 'STEP AP203' ),
    '1' );
FILE_NAME ('Web Model 68268_43363.step',
    '2017-04-12T16:06:31',
    ( '' ),
    ( '' ),
    'SwSTEP 2.0',
    'SolidWorks 2016',
    '' );
FILE_SCHEMA (( 'CONFIG_CONTROL_DESIGN' ));
ENDSEC;

DATA;
#1 = DIRECTION ( 'NONE',  ( 1.559302000878029000E-016, -1.000000000000000000, 0.0000000000000000000 ) ) ;
#2 = COORDINATED_UNIVERSAL_TIME_OFFSET ( 5, 0, .BEHIND. ) ;
#3 = CARTESIAN_POINT ( 'NONE',  ( -127.0000000000000300, -177.9999999999999700, 0.0000000000000000000 ) ) ;
#4 = CC_DESIGN_APPROVAL ( #226, ( #217 ) ) ;
#5 = CARTESIAN_POINT ( 'NONE',  ( 126.9999999999999100, 178.0000000000000300, 0.0000000000000000000 ) ) ;
#6 = FACE_OUTER_BOUND ( 'NONE', #21, .T. ) ;
#7 = VECTOR ( 'NONE', #237, 1000.000000000000000 ) ;
#8 = AXIS2_PLACEMENT_3D ( 'NONE', #193, #167, #151 ) ;
#9 = VECTOR ( 'NONE', #186, 1000.000000000000000 ) ;
#10 = FACE_OUTER_BOUND ( 'NONE', #223, .T. ) ;
#11 = ORIENTED_EDGE ( 'NONE', *, *, #91, .F. ) ;
#12 = APPLICATION_PROTOCOL_DEFINITION ( 'international standard', 'config_control_design', 1994, #131 ) ;
#13 = DIRECTION ( 'NONE',  ( 1.559302000878029000E-016, -1.000000000000000000, 0.0000000000000000000 ) ) ;
#14 = APPROVAL_PERSON_ORGANIZATION ( #225, #146, #26 ) ;
#15 = CC_DESIGN_PERSON_AND_ORGANIZATION_ASSIGNMENT ( #97, #149, ( #217 ) ) ;
#16 = FACE_OUTER_BOUND ( 'NONE', #17, .T. ) ;
#17 = EDGE_LOOP ( 'NONE', ( #202, #70, #11, #229 ) ) ;
#18 = DIRECTION ( 'NONE',  ( 1.000000000000000000, 0.0000000000000000000, 0.0000000000000000000 ) ) ;
#19 = EDGE_CURVE ( 'NONE', #230, #222, #209, .T. ) ;
#20 = DIRECTION ( 'NONE',  ( -0.0000000000000000000, -0.0000000000000000000, -1.000000000000000000 ) ) ;
#21 = EDGE_LOOP ( 'NONE', ( #164, #99, #34, #46 ) ) ;
#22 = PLANE ( 'NONE',  #85 ) ;
#23 = AXIS2_PLACEMENT_3D ( 'NONE', #67, #198, #122 ) ;
#24 = PLANE ( 'NONE',  #8 ) ;
#25 = APPROVAL_ROLE ( '' ) ;
#26 = APPROVAL_ROLE ( '' ) ;
#27 = CARTESIAN_POINT ( 'NONE',  ( -127.0000000000000300, -177.9999999999999700, 3.000000000000000000 ) ) ;
#28 = DIRECTION ( 'NONE',  ( 1.000000000000000000, 0.0000000000000000000, 0.0000000000000000000 ) ) ;
#29 = PRODUCT_DEFINITION_SHAPE ( 'NONE', 'NONE',  #217 ) ;
#30 = CC_DESIGN_DATE_AND_TIME_ASSIGNMENT ( #84, #129, ( #217 ) ) ;
#31 = VECTOR ( 'NONE', #162, 1000.000000000000000 ) ;
#32 = CARTESIAN_POINT ( 'NONE',  ( -127.0000000000000300, -177.9999999999999700, 0.0000000000000000000 ) ) ;
#33 =( NAMED_UNIT ( * ) PLANE_ANGLE_UNIT ( ) SI_UNIT ( $, .RADIAN. ) );
#34 = ORIENTED_EDGE ( 'NONE', *, *, #102, .T. ) ;
#35 = CARTESIAN_POINT ( 'NONE',  ( 126.9999999999999100, 178.0000000000000300, 3.000000000000000000 ) ) ;
#36 = PLANE ( 'NONE',  #127 ) ;
#37 = PERSON_AND_ORGANIZATION_ROLE ( 'creator' ) ;
#38 = ADVANCED_FACE ( 'NONE', ( #119 ), #121, .F. ) ;
#39 = VECTOR ( 'NONE', #28, 1000.000000000000000 ) ;
#40 = DIRECTION ( 'NONE',  ( 0.0000000000000000000, -1.000000000000000000, 0.0000000000000000000 ) ) ;
#41 = PLANE ( 'NONE',  #72 ) ;
#42 = ORIENTED_EDGE ( 'NONE', *, *, #88, .F. ) ;
#43 = PRODUCT_DEFINITION_FORMATION_WITH_SPECIFIED_SOURCE ( 'ANY', '', #68, .NOT_KNOWN. ) ;
#44 = CALENDAR_DATE ( 2017, 12, 4 ) ;
#45 = CARTESIAN_POINT ( 'NONE',  ( -127.0000000000000900, 178.0000000000000300, 0.0000000000000000000 ) ) ;
#46 = ORIENTED_EDGE ( 'NONE', *, *, #195, .T. ) ;
#47 = PERSON_AND_ORGANIZATION_ROLE ( 'classification_officer' ) ;
#48 = EDGE_LOOP ( 'NONE', ( #42, #138, #196, #112 ) ) ;
#49 = DIRECTION ( 'NONE',  ( 0.0000000000000000000, -0.0000000000000000000, -1.000000000000000000 ) ) ;
#50 = APPROVAL_DATE_TIME ( #104, #58 ) ;
#51 = ORIENTED_EDGE ( 'NONE', *, *, #55, .T. ) ;
#52 = VECTOR ( 'NONE', #185, 1000.000000000000000 ) ;
#53 = APPROVAL_STATUS ( 'not_yet_approved' ) ;
#54 = APPLICATION_PROTOCOL_DEFINITION ( 'international standard', 'config_control_design', 1994, #130 ) ;
#55 = EDGE_CURVE ( 'NONE', #234, #235, #81, .T. ) ;
#56 = CARTESIAN_POINT ( 'NONE',  ( 126.9999999999999100, 178.0000000000000300, 0.0000000000000000000 ) ) ;
#57 = DIRECTION ( 'NONE',  ( -0.0000000000000000000, -0.0000000000000000000, -1.000000000000000000 ) ) ;
#58 = APPROVAL ( #184, 'UNSPECIFIED' ) ;
#59 = CARTESIAN_POINT ( 'NONE',  ( -127.0000000000000300, -177.9999999999999700, 3.000000000000000000 ) ) ;
#60 = ORIENTED_EDGE ( 'NONE', *, *, #124, .T. ) ;
#61 = LINE ( 'NONE', #5, #9 ) ;
#62 = ADVANCED_FACE ( 'NONE', ( #10 ), #24, .F. ) ;
#63 = DATE_AND_TIME ( #200, #118 ) ;
#64 = CARTESIAN_POINT ( 'NONE',  ( -127.0000000000000900, 178.0000000000000300, 3.000000000000000000 ) ) ;
#65 = LINE ( 'NONE', #133, #208 ) ;
#66 = VECTOR ( 'NONE', #75, 1000.000000000000000 ) ;
#67 = CARTESIAN_POINT ( 'NONE',  ( -127.0000000000000300, -177.9999999999999700, 0.0000000000000000000 ) ) ;
#68 = PRODUCT ( 'Web Model 68268_43363', 'Web Model 68268_43363', '', ( #114 ) ) ;
#69 = PERSON_AND_ORGANIZATION ( #108, #128 ) ;
#70 = ORIENTED_EDGE ( 'NONE', *, *, #19, .F. ) ;
#71 = CC_DESIGN_APPROVAL ( #58, ( #43 ) ) ;
#72 = AXIS2_PLACEMENT_3D ( 'NONE', #92, #78, #182 ) ;
#73 = LOCAL_TIME ( 12, 6, 31.00000000000000000, #103 ) ;
#74 = LOCAL_TIME ( 12, 6, 31.00000000000000000, #147 ) ;
#75 = DIRECTION ( 'NONE',  ( -0.0000000000000000000, -0.0000000000000000000, -1.000000000000000000 ) ) ;
#76 =( LENGTH_UNIT ( ) NAMED_UNIT ( * ) SI_UNIT ( .MILLI., .METRE. ) );
#77 = CARTESIAN_POINT ( 'NONE',  ( -127.0000000000000900, 178.0000000000000300, 3.000000000000000000 ) ) ;
#78 = DIRECTION ( 'NONE',  ( 0.0000000000000000000, 1.000000000000000000, 0.0000000000000000000 ) ) ;
#79 = ADVANCED_FACE ( 'NONE', ( #144 ), #22, .F. ) ;
#80 = VERTEX_POINT ( 'NONE', #32 ) ;
#81 = LINE ( 'NONE', #106, #165 ) ;
#82 = CC_DESIGN_PERSON_AND_ORGANIZATION_ASSIGNMENT ( #174, #37, ( #43 ) ) ;
#83 = DIRECTION ( 'NONE',  ( -0.0000000000000000000, 0.0000000000000000000, 1.000000000000000000 ) ) ;
#84 = DATE_AND_TIME ( #142, #191 ) ;
#85 = AXIS2_PLACEMENT_3D ( 'NONE', #159, #40, #49 ) ;
#86 = LOCAL_TIME ( 12, 6, 31.00000000000000000, #107 ) ;
#87 = LINE ( 'NONE', #45, #31 ) ;
#88 = EDGE_CURVE ( 'NONE', #205, #80, #183, .T. ) ;
#89 = APPROVAL_PERSON_ORGANIZATION ( #156, #226, #171 ) ;
#90 = ORIENTED_EDGE ( 'NONE', *, *, #100, .T. ) ;
#91 = EDGE_CURVE ( 'NONE', #221, #230, #93, .T. ) ;
#92 = CARTESIAN_POINT ( 'NONE',  ( -127.0000000000000300, -177.9999999999999700, 3.000000000000000000 ) ) ;
#93 = LINE ( 'NONE', #27, #39 ) ;
#94 = DIRECTION ( 'NONE',  ( 0.0000000000000000000, 0.0000000000000000000, 1.000000000000000000 ) ) ;
#95 = CARTESIAN_POINT ( 'NONE',  ( 126.9999999999999700, -177.9999999999999700, 3.000000000000000000 ) ) ;
#96 = CC_DESIGN_PERSON_AND_ORGANIZATION_ASSIGNMENT ( #179, #197, ( #43 ) ) ;
#97 = PERSON_AND_ORGANIZATION ( #108, #128 ) ;
#98 = DATE_AND_TIME ( #216, #74 ) ;
#99 = ORIENTED_EDGE ( 'NONE', *, *, #91, .T. ) ;
#100 = EDGE_CURVE ( 'NONE', #235, #205, #87, .T. ) ;
#101 = ADVANCED_BREP_SHAPE_REPRESENTATION ( 'Web Model 68268_43363', ( #203, #192 ), #143 ) ;
#102 = EDGE_CURVE ( 'NONE', #230, #234, #139, .T. ) ;
#103 = COORDINATED_UNIVERSAL_TIME_OFFSET ( 5, 0, .BEHIND. ) ;
#104 = DATE_AND_TIME ( #123, #73 ) ;
#105 = LINE ( 'NONE', #134, #190 ) ;
#106 = CARTESIAN_POINT ( 'NONE',  ( 126.9999999999999100, 178.0000000000000300, 3.000000000000000000 ) ) ;
#107 = COORDINATED_UNIVERSAL_TIME_OFFSET ( 5, 0, .BEHIND. ) ;
#108 = PERSON ( 'UNSPECIFIED', 'UNSPECIFIED', 'UNSPECIFIED', ('UNSPECIFIED'), ('UNSPECIFIED'), ('UNSPECIFIED') ) ;
#109 = DATE_TIME_ROLE ( 'classification_date' ) ;
#110 = FACE_OUTER_BOUND ( 'NONE', #204, .T. ) ;
#111 = SECURITY_CLASSIFICATION ( '', '', #140 ) ;
#112 = ORIENTED_EDGE ( 'NONE', *, *, #115, .F. ) ;
#113 = EDGE_CURVE ( 'NONE', #215, #221, #178, .T. ) ;
#114 = MECHANICAL_CONTEXT ( 'NONE', #130, 'mechanical' ) ;
#115 = EDGE_CURVE ( 'NONE', #80, #222, #194, .T. ) ;
#116 = CARTESIAN_POINT ( 'NONE',  ( 0.0000000000000000000, 0.0000000000000000000, 0.0000000000000000000 ) ) ;
#117 = PERSON_AND_ORGANIZATION ( #108, #128 ) ;
#118 = LOCAL_TIME ( 12, 6, 31.00000000000000000, #137 ) ;
#119 = FACE_OUTER_BOUND ( 'NONE', #48, .T. ) ;
#120 = CARTESIAN_POINT ( 'NONE',  ( -127.0000000000000900, 178.0000000000000300, 0.0000000000000000000 ) ) ;
#121 = PLANE ( 'NONE',  #23 ) ;
#122 = DIRECTION ( 'NONE',  ( 1.000000000000000000, 0.0000000000000000000, 0.0000000000000000000 ) ) ;
#123 = CALENDAR_DATE ( 2017, 12, 4 ) ;
#124 = EDGE_CURVE ( 'NONE', #222, #235, #61, .T. ) ;
#125 = CC_DESIGN_PERSON_AND_ORGANIZATION_ASSIGNMENT ( #69, #47, ( #111 ) ) ;
#126 = VECTOR ( 'NONE', #57, 1000.000000000000000 ) ;
#127 = AXIS2_PLACEMENT_3D ( 'NONE', #59, #83, #18 ) ;
#128 = ORGANIZATION ( 'UNSPECIFIED', 'UNSPECIFIED', '' ) ;
#129 = DATE_TIME_ROLE ( 'creation_date' ) ;
#130 = APPLICATION_CONTEXT ( 'configuration controlled 3d designs of mechanical parts and assemblies' ) ;
#131 = APPLICATION_CONTEXT ( 'configuration controlled 3d designs of mechanical parts and assemblies' ) ;
#132 = CLOSED_SHELL ( 'NONE', ( #62, #136, #220, #79, #158, #38 ) ) ;
#133 = CARTESIAN_POINT ( 'NONE',  ( -127.0000000000000300, -177.9999999999999700, 3.000000000000000000 ) ) ;
#134 = CARTESIAN_POINT ( 'NONE',  ( -127.0000000000000900, 178.0000000000000300, 3.000000000000000000 ) ) ;
#135 = CC_DESIGN_DATE_AND_TIME_ASSIGNMENT ( #177, #109, ( #111 ) ) ;
#136 = ADVANCED_FACE ( 'NONE', ( #16 ), #41, .F. ) ;
#137 = COORDINATED_UNIVERSAL_TIME_OFFSET ( 5, 0, .BEHIND. ) ;
#138 = ORIENTED_EDGE ( 'NONE', *, *, #100, .F. ) ;
#139 = LINE ( 'NONE', #212, #7 ) ;
#140 = SECURITY_CLASSIFICATION_LEVEL ( 'unclassified' ) ;
#141 = APPROVAL_STATUS ( 'not_yet_approved' ) ;
#142 = CALENDAR_DATE ( 2017, 12, 4 ) ;
#143 =( GEOMETRIC_REPRESENTATION_CONTEXT ( 3 ) GLOBAL_UNCERTAINTY_ASSIGNED_CONTEXT ( ( #145 ) ) GLOBAL_UNIT_ASSIGNED_CONTEXT ( ( #76, #33, #152 ) ) REPRESENTATION_CONTEXT ( 'NONE', 'WORKASPACE' ) );
#144 = FACE_OUTER_BOUND ( 'NONE', #228, .T. ) ;
#145 = UNCERTAINTY_MEASURE_WITH_UNIT (LENGTH_MEASURE( 1.000000000000000100E-005 ), #76, 'distance_accuracy_value', 'NONE');
#146 = APPROVAL ( #53, 'UNSPECIFIED' ) ;
#147 = COORDINATED_UNIVERSAL_TIME_OFFSET ( 5, 0, .BEHIND. ) ;
#148 = ORIENTED_EDGE ( 'NONE', *, *, #219, .F. ) ;
#149 = PERSON_AND_ORGANIZATION_ROLE ( 'creator' ) ;
#150 = LINE ( 'NONE', #77, #126 ) ;
#151 = DIRECTION ( 'NONE',  ( -1.559302000878029000E-016, 1.000000000000000000, 0.0000000000000000000 ) ) ;
#152 =( NAMED_UNIT ( * ) SI_UNIT ( $, .STERADIAN. ) SOLID_ANGLE_UNIT ( ) );
#153 = AXIS2_PLACEMENT_3D ( 'NONE', #35, #154, #13 ) ;
#154 = DIRECTION ( 'NONE',  ( -1.000000000000000000, -1.559302000878029000E-016, 0.0000000000000000000 ) ) ;
#155 = PLANE ( 'NONE',  #153 ) ;
#156 = PERSON_AND_ORGANIZATION ( #108, #128 ) ;
#157 = VECTOR ( 'NONE', #236, 1000.000000000000000 ) ;
#158 = ADVANCED_FACE ( 'NONE', ( #6 ), #36, .T. ) ;
#159 = CARTESIAN_POINT ( 'NONE',  ( -127.0000000000000900, 178.0000000000000300, 3.000000000000000000 ) ) ;
#160 = ORIENTED_EDGE ( 'NONE', *, *, #102, .F. ) ;
#161 = CC_DESIGN_APPROVAL ( #146, ( #111 ) ) ;
#162 = DIRECTION ( 'NONE',  ( -1.000000000000000000, -0.0000000000000000000, -0.0000000000000000000 ) ) ;
#163 = DESIGN_CONTEXT ( 'detailed design', #131, 'design' ) ;
#164 = ORIENTED_EDGE ( 'NONE', *, *, #113, .T. ) ;
#165 = VECTOR ( 'NONE', #20, 1000.000000000000000 ) ;
#166 = SHAPE_DEFINITION_REPRESENTATION ( #29, #101 ) ;
#167 = DIRECTION ( 'NONE',  ( 1.000000000000000000, 1.559302000878029000E-016, -0.0000000000000000000 ) ) ;
#168 = ORIENTED_EDGE ( 'NONE', *, *, #227, .F. ) ;
#169 = CARTESIAN_POINT ( 'NONE',  ( -127.0000000000000300, -177.9999999999999700, 3.000000000000000000 ) ) ;
#170 = CC_DESIGN_SECURITY_CLASSIFICATION ( #111, ( #43 ) ) ;
#171 = APPROVAL_ROLE ( '' ) ;
#172 = APPROVAL_DATE_TIME ( #98, #146 ) ;
#173 = ORIENTED_EDGE ( 'NONE', *, *, #19, .T. ) ;
#174 = PERSON_AND_ORGANIZATION ( #108, #128 ) ;
#175 = ORIENTED_EDGE ( 'NONE', *, *, #219, .T. ) ;
#176 = PRODUCT_RELATED_PRODUCT_CATEGORY ( 'detail', '', ( #68 ) ) ;
#177 = DATE_AND_TIME ( #44, #86 ) ;
#178 = LINE ( 'NONE', #64, #157 ) ;
#179 = PERSON_AND_ORGANIZATION ( #108, #128 ) ;
#180 = CARTESIAN_POINT ( 'NONE',  ( 126.9999999999999100, 178.0000000000000300, 3.000000000000000000 ) ) ;
#181 = DIRECTION ( 'NONE',  ( -0.0000000000000000000, -0.0000000000000000000, -1.000000000000000000 ) ) ;
#182 = DIRECTION ( 'NONE',  ( 0.0000000000000000000, -0.0000000000000000000, 1.000000000000000000 ) ) ;
#183 = LINE ( 'NONE', #120, #224 ) ;
#184 = APPROVAL_STATUS ( 'not_yet_approved' ) ;
#185 = DIRECTION ( 'NONE',  ( 1.000000000000000000, 0.0000000000000000000, 0.0000000000000000000 ) ) ;
#186 = DIRECTION ( 'NONE',  ( -1.559302000878029000E-016, 1.000000000000000000, -0.0000000000000000000 ) ) ;
#187 = PERSON_AND_ORGANIZATION ( #108, #128 ) ;
#188 = CARTESIAN_POINT ( 'NONE',  ( 126.9999999999999700, -177.9999999999999700, 3.000000000000000000 ) ) ;
#189 = ORIENTED_EDGE ( 'NONE', *, *, #88, .T. ) ;
#190 = VECTOR ( 'NONE', #218, 1000.000000000000000 ) ;
#191 = LOCAL_TIME ( 12, 6, 31.00000000000000000, #2 ) ;
#192 = AXIS2_PLACEMENT_3D ( 'NONE', #116, #94, #214 ) ;
#193 = CARTESIAN_POINT ( 'NONE',  ( -127.0000000000000900, 178.0000000000000300, 3.000000000000000000 ) ) ;
#194 = LINE ( 'NONE', #3, #52 ) ;
#195 = EDGE_CURVE ( 'NONE', #234, #215, #105, .T. ) ;
#196 = ORIENTED_EDGE ( 'NONE', *, *, #124, .F. ) ;
#197 = PERSON_AND_ORGANIZATION_ROLE ( 'design_supplier' ) ;
#198 = DIRECTION ( 'NONE',  ( -0.0000000000000000000, 0.0000000000000000000, 1.000000000000000000 ) ) ;
#199 = CARTESIAN_POINT ( 'NONE',  ( -127.0000000000000900, 178.0000000000000300, 3.000000000000000000 ) ) ;
#200 = CALENDAR_DATE ( 2017, 12, 4 ) ;
#201 = ORIENTED_EDGE ( 'NONE', *, *, #195, .F. ) ;
#202 = ORIENTED_EDGE ( 'NONE', *, *, #115, .T. ) ;
#203 = MANIFOLD_SOLID_BREP ( 'Extrude1', #132 ) ;
#204 = EDGE_LOOP ( 'NONE', ( #60, #211, #160, #173 ) ) ;
#205 = VERTEX_POINT ( 'NONE', #233 ) ;
#206 = APPROVAL_DATE_TIME ( #63, #226 ) ;
#207 = CC_DESIGN_PERSON_AND_ORGANIZATION_ASSIGNMENT ( #187, #231, ( #68 ) ) ;
#208 = VECTOR ( 'NONE', #181, 1000.000000000000000 ) ;
#209 = LINE ( 'NONE', #188, #66 ) ;
#210 = ORIENTED_EDGE ( 'NONE', *, *, #113, .F. ) ;
#211 = ORIENTED_EDGE ( 'NONE', *, *, #55, .F. ) ;
#212 = CARTESIAN_POINT ( 'NONE',  ( 126.9999999999999100, 178.0000000000000300, 3.000000000000000000 ) ) ;
#213 = APPROVAL_PERSON_ORGANIZATION ( #117, #58, #25 ) ;
#214 = DIRECTION ( 'NONE',  ( 1.000000000000000000, 0.0000000000000000000, 0.0000000000000000000 ) ) ;
#215 = VERTEX_POINT ( 'NONE', #199 ) ;
#216 = CALENDAR_DATE ( 2017, 12, 4 ) ;
#217 = PRODUCT_DEFINITION ( 'UNKNOWN', '', #43, #163 ) ;
#218 = DIRECTION ( 'NONE',  ( -1.000000000000000000, -0.0000000000000000000, -0.0000000000000000000 ) ) ;
#219 = EDGE_CURVE ( 'NONE', #215, #205, #150, .T. ) ;
#220 = ADVANCED_FACE ( 'NONE', ( #110 ), #155, .F. ) ;
#221 = VERTEX_POINT ( 'NONE', #169 ) ;
#222 = VERTEX_POINT ( 'NONE', #232 ) ;
#223 = EDGE_LOOP ( 'NONE', ( #189, #168, #210, #175 ) ) ;
#224 = VECTOR ( 'NONE', #1, 1000.000000000000000 ) ;
#225 = PERSON_AND_ORGANIZATION ( #108, #128 ) ;
#226 = APPROVAL ( #141, 'UNSPECIFIED' ) ;
#227 = EDGE_CURVE ( 'NONE', #221, #80, #65, .T. ) ;
#228 = EDGE_LOOP ( 'NONE', ( #90, #148, #201, #51 ) ) ;
#229 = ORIENTED_EDGE ( 'NONE', *, *, #227, .T. ) ;
#230 = VERTEX_POINT ( 'NONE', #95 ) ;
#231 = PERSON_AND_ORGANIZATION_ROLE ( 'design_owner' ) ;
#232 = CARTESIAN_POINT ( 'NONE',  ( 126.9999999999999700, -177.9999999999999700, 0.0000000000000000000 ) ) ;
#233 = CARTESIAN_POINT ( 'NONE',  ( -127.0000000000000900, 178.0000000000000300, 0.0000000000000000000 ) ) ;
#234 = VERTEX_POINT ( 'NONE', #180 ) ;
#235 = VERTEX_POINT ( 'NONE', #56 ) ;
#236 = DIRECTION ( 'NONE',  ( 1.559302000878029000E-016, -1.000000000000000000, 0.0000000000000000000 ) ) ;
#237 = DIRECTION ( 'NONE',  ( -1.559302000878029000E-016, 1.000000000000000000, -0.0000000000000000000 ) ) ;
ENDSEC;
END-ISO-10303-21;
