ISO-10303-21;
HEADER;
FILE_DESCRIPTION (( 'STEP AP203' ),
    '1' );
FILE_NAME ('Web Model 68402.STEP',
    '2017-01-31T19:57:07',
    ( '' ),
    ( '' ),
    'SwSTEP 2.0',
    'SolidWorks 2016',
    '' );
FILE_SCHEMA (( 'CONFIG_CONTROL_DESIGN' ));
ENDSEC;

DATA;
#1 = ORIENTED_EDGE ( 'NONE', *, *, #81, .F. ) ;
#2 = CALENDAR_DATE ( 2017, 31, 1 ) ;
#3 = CC_DESIGN_PERSON_AND_ORGANIZATION_ASSIGNMENT ( #114, #39, ( #166 ) ) ;
#4 = EDGE_LOOP ( 'NONE', ( #38, #184, #116, #220 ) ) ;
#5 = APPROVAL_DATE_TIME ( #183, #233 ) ;
#6 = VERTEX_POINT ( 'NONE', #48 ) ;
#7 = DIRECTION ( 'NONE',  ( 0.0000000000000000000, -1.000000000000000000, 0.0000000000000000000 ) ) ;
#8 = LINE ( 'NONE', #100, #119 ) ;
#9 = CC_DESIGN_PERSON_AND_ORGANIZATION_ASSIGNMENT ( #122, #21, ( #217 ) ) ;
#10 = DIRECTION ( 'NONE',  ( 0.0000000000000000000, -0.0000000000000000000, -1.000000000000000000 ) ) ;
#11 = PERSON_AND_ORGANIZATION ( #229, #185 ) ;
#12 = DIRECTION ( 'NONE',  ( -1.000000000000000000, -0.0000000000000000000, -0.0000000000000000000 ) ) ;
#13 = AXIS2_PLACEMENT_3D ( 'NONE', #209, #158, #124 ) ;
#14 = CARTESIAN_POINT ( 'NONE',  ( 8.750000000000000000, -6.250000000000000900, 0.0000000000000000000 ) ) ;
#15 = EDGE_CURVE ( 'NONE', #64, #197, #8, .T. ) ;
#16 = DIRECTION ( 'NONE',  ( -0.0000000000000000000, -0.0000000000000000000, -1.000000000000000000 ) ) ;
#17 = DIRECTION ( 'NONE',  ( 1.110223024625156500E-015, 1.000000000000000000, -0.0000000000000000000 ) ) ;
#18 = ORIENTED_EDGE ( 'NONE', *, *, #215, .T. ) ;
#19 = APPLICATION_CONTEXT ( 'configuration controlled 3d designs of mechanical parts and assemblies' ) ;
#20 = LOCAL_TIME ( 14, 57, 7.000000000000000000, #96 ) ;
#21 = PERSON_AND_ORGANIZATION_ROLE ( 'classification_officer' ) ;
#22 = VECTOR ( 'NONE', #16, 1000.000000000000000 ) ;
#23 = MECHANICAL_CONTEXT ( 'NONE', #19, 'mechanical' ) ;
#24 = ORIENTED_EDGE ( 'NONE', *, *, #148, .T. ) ;
#25 = APPROVAL_PERSON_ORGANIZATION ( #133, #73, #213 ) ;
#26 = ORIENTED_EDGE ( 'NONE', *, *, #193, .F. ) ;
#27 =( GEOMETRIC_REPRESENTATION_CONTEXT ( 3 ) GLOBAL_UNCERTAINTY_ASSIGNED_CONTEXT ( ( #56 ) ) GLOBAL_UNIT_ASSIGNED_CONTEXT ( ( #75, #142, #34 ) ) REPRESENTATION_CONTEXT ( 'NONE', 'WORKASPACE' ) );
#28 = CLOSED_SHELL ( 'NONE', ( #35, #115, #144, #159, #111, #131 ) ) ;
#29 = DATE_AND_TIME ( #2, #151 ) ;
#30 = FACE_OUTER_BOUND ( 'NONE', #196, .T. ) ;
#31 = DIRECTION ( 'NONE',  ( -0.0000000000000000000, -0.0000000000000000000, -1.000000000000000000 ) ) ;
#32 = CARTESIAN_POINT ( 'NONE',  ( -8.750000000000000000, -6.250000000000000900, 3.000000000000000000 ) ) ;
#33 = CC_DESIGN_PERSON_AND_ORGANIZATION_ASSIGNMENT ( #219, #89, ( #86 ) ) ;
#34 =( NAMED_UNIT ( * ) SI_UNIT ( $, .STERADIAN. ) SOLID_ANGLE_UNIT ( ) );
#35 = ADVANCED_FACE ( 'NONE', ( #30 ), #65, .F. ) ;
#36 = CARTESIAN_POINT ( 'NONE',  ( 8.750000000000000000, -6.250000000000000900, 0.0000000000000000000 ) ) ;
#37 = COORDINATED_UNIVERSAL_TIME_OFFSET ( 5, 0, .BEHIND. ) ;
#38 = ORIENTED_EDGE ( 'NONE', *, *, #162, .T. ) ;
#39 = PERSON_AND_ORGANIZATION_ROLE ( 'creator' ) ;
#40 = CC_DESIGN_DATE_AND_TIME_ASSIGNMENT ( #190, #199, ( #166 ) ) ;
#41 = PERSON_AND_ORGANIZATION_ROLE ( 'creator' ) ;
#42 = AXIS2_PLACEMENT_3D ( 'NONE', #141, #207, #108 ) ;
#43 = PERSON_AND_ORGANIZATION ( #229, #185 ) ;
#44 = FACE_OUTER_BOUND ( 'NONE', #154, .T. ) ;
#45 = EDGE_CURVE ( 'NONE', #197, #99, #212, .T. ) ;
#46 = LINE ( 'NONE', #66, #59 ) ;
#47 = ORIENTED_EDGE ( 'NONE', *, *, #203, .T. ) ;
#48 = CARTESIAN_POINT ( 'NONE',  ( 8.750000000000000000, -6.250000000000000900, 3.000000000000000000 ) ) ;
#49 = EDGE_CURVE ( 'NONE', #97, #6, #160, .T. ) ;
#50 = APPROVAL_DATE_TIME ( #29, #172 ) ;
#51 = ORIENTED_EDGE ( 'NONE', *, *, #161, .F. ) ;
#52 = DIRECTION ( 'NONE',  ( -0.0000000000000000000, -0.0000000000000000000, -1.000000000000000000 ) ) ;
#53 = DIRECTION ( 'NONE',  ( -1.110223024625156300E-015, -1.000000000000000000, 0.0000000000000000000 ) ) ;
#54 = LINE ( 'NONE', #32, #163 ) ;
#55 = ORIENTED_EDGE ( 'NONE', *, *, #45, .T. ) ;
#56 = UNCERTAINTY_MEASURE_WITH_UNIT (LENGTH_MEASURE( 1.000000000000000100E-005 ), #75, 'distance_accuracy_value', 'NONE');
#57 = PLANE ( 'NONE',  #208 ) ;
#58 = APPROVAL_PERSON_ORGANIZATION ( #76, #233, #145 ) ;
#59 = VECTOR ( 'NONE', #7, 1000.000000000000000 ) ;
#60 = ORIENTED_EDGE ( 'NONE', *, *, #223, .F. ) ;
#61 = CC_DESIGN_SECURITY_CLASSIFICATION ( #217, ( #90 ) ) ;
#62 = CALENDAR_DATE ( 2017, 31, 1 ) ;
#63 = LINE ( 'NONE', #88, #98 ) ;
#64 = VERTEX_POINT ( 'NONE', #170 ) ;
#65 = PLANE ( 'NONE',  #120 ) ;
#66 = CARTESIAN_POINT ( 'NONE',  ( -8.750000000000000000, 6.249999999999999100, 3.000000000000000000 ) ) ;
#67 = ADVANCED_BREP_SHAPE_REPRESENTATION ( 'Web Model 68402', ( #121, #178 ), #27 ) ;
#68 = DATE_AND_TIME ( #62, #107 ) ;
#69 = VECTOR ( 'NONE', #31, 1000.000000000000000 ) ;
#70 = CARTESIAN_POINT ( 'NONE',  ( -8.750000000000000000, 6.249999999999999100, 0.0000000000000000000 ) ) ;
#71 = DIRECTION ( 'NONE',  ( -0.0000000000000000000, -0.0000000000000000000, -1.000000000000000000 ) ) ;
#72 = DIRECTION ( 'NONE',  ( 1.000000000000000000, 0.0000000000000000000, 0.0000000000000000000 ) ) ;
#73 = APPROVAL ( #127, 'UNSPECIFIED' ) ;
#74 = VERTEX_POINT ( 'NONE', #206 ) ;
#75 =( LENGTH_UNIT ( ) NAMED_UNIT ( * ) SI_UNIT ( .MILLI., .METRE. ) );
#76 = PERSON_AND_ORGANIZATION ( #229, #185 ) ;
#77 = APPROVAL_DATE_TIME ( #230, #73 ) ;
#78 = EDGE_LOOP ( 'NONE', ( #134, #225, #187, #104 ) ) ;
#79 = LOCAL_TIME ( 14, 57, 7.000000000000000000, #37 ) ;
#80 = VECTOR ( 'NONE', #228, 1000.000000000000000 ) ;
#81 = EDGE_CURVE ( 'NONE', #197, #97, #46, .T. ) ;
#82 = DIRECTION ( 'NONE',  ( 1.000000000000000000, 0.0000000000000000000, 0.0000000000000000000 ) ) ;
#83 = CARTESIAN_POINT ( 'NONE',  ( -8.750000000000000000, 6.249999999999999100, 3.000000000000000000 ) ) ;
#84 = CARTESIAN_POINT ( 'NONE',  ( 8.750000000000000000, -6.250000000000000900, 3.000000000000000000 ) ) ;
#85 = CARTESIAN_POINT ( 'NONE',  ( 8.750000000000014200, 6.249999999999999100, 3.000000000000000000 ) ) ;
#86 = PRODUCT ( 'Web Model 68402', 'Web Model 68402', '', ( #23 ) ) ;
#87 = VECTOR ( 'NONE', #106, 1000.000000000000000 ) ;
#88 = CARTESIAN_POINT ( 'NONE',  ( -8.750000000000000000, 6.249999999999999100, 0.0000000000000000000 ) ) ;
#89 = PERSON_AND_ORGANIZATION_ROLE ( 'design_owner' ) ;
#90 = PRODUCT_DEFINITION_FORMATION_WITH_SPECIFIED_SOURCE ( 'ANY', '', #86, .NOT_KNOWN. ) ;
#91 = APPLICATION_PROTOCOL_DEFINITION ( 'international standard', 'config_control_design', 1994, #19 ) ;
#92 = APPLICATION_CONTEXT ( 'configuration controlled 3d designs of mechanical parts and assemblies' ) ;
#93 = LINE ( 'NONE', #85, #69 ) ;
#94 = ORIENTED_EDGE ( 'NONE', *, *, #162, .F. ) ;
#95 = CC_DESIGN_APPROVAL ( #233, ( #217 ) ) ;
#96 = COORDINATED_UNIVERSAL_TIME_OFFSET ( 5, 0, .BEHIND. ) ;
#97 = VERTEX_POINT ( 'NONE', #173 ) ;
#98 = VECTOR ( 'NONE', #12, 1000.000000000000000 ) ;
#99 = VERTEX_POINT ( 'NONE', #152 ) ;
#100 = CARTESIAN_POINT ( 'NONE',  ( -8.750000000000000000, 6.249999999999999100, 3.000000000000000000 ) ) ;
#101 = DIRECTION ( 'NONE',  ( -0.0000000000000000000, 0.0000000000000000000, 1.000000000000000000 ) ) ;
#102 = CARTESIAN_POINT ( 'NONE',  ( 8.750000000000000000, -6.250000000000000900, 3.000000000000000000 ) ) ;
#103 = EDGE_LOOP ( 'NONE', ( #181, #186, #169, #137 ) ) ;
#104 = ORIENTED_EDGE ( 'NONE', *, *, #161, .T. ) ;
#105 = CARTESIAN_POINT ( 'NONE',  ( -8.750000000000000000, 6.249999999999999100, 3.000000000000000000 ) ) ;
#106 = DIRECTION ( 'NONE',  ( 0.0000000000000000000, -1.000000000000000000, 0.0000000000000000000 ) ) ;
#107 = LOCAL_TIME ( 14, 57, 7.000000000000000000, #167 ) ;
#108 = DIRECTION ( 'NONE',  ( 0.0000000000000000000, -0.0000000000000000000, 1.000000000000000000 ) ) ;
#109 = PRODUCT_RELATED_PRODUCT_CATEGORY ( 'detail', '', ( #86 ) ) ;
#110 = APPROVAL_ROLE ( '' ) ;
#111 = ADVANCED_FACE ( 'NONE', ( #146 ), #192, .T. ) ;
#112 = PERSON_AND_ORGANIZATION_ROLE ( 'design_supplier' ) ;
#113 = DIRECTION ( 'NONE',  ( 0.0000000000000000000, 0.0000000000000000000, 1.000000000000000000 ) ) ;
#114 = PERSON_AND_ORGANIZATION ( #229, #185 ) ;
#115 = ADVANCED_FACE ( 'NONE', ( #117 ), #136, .F. ) ;
#116 = ORIENTED_EDGE ( 'NONE', *, *, #49, .F. ) ;
#117 = FACE_OUTER_BOUND ( 'NONE', #78, .T. ) ;
#118 = CARTESIAN_POINT ( 'NONE',  ( -8.750000000000000000, -6.250000000000000900, 3.000000000000000000 ) ) ;
#119 = VECTOR ( 'NONE', #221, 1000.000000000000000 ) ;
#120 = AXIS2_PLACEMENT_3D ( 'NONE', #189, #156, #53 ) ;
#121 = MANIFOLD_SOLID_BREP ( 'Extrude1', #28 ) ;
#122 = PERSON_AND_ORGANIZATION ( #229, #185 ) ;
#123 = CARTESIAN_POINT ( 'NONE',  ( 0.0000000000000000000, 0.0000000000000000000, 0.0000000000000000000 ) ) ;
#124 = DIRECTION ( 'NONE',  ( -0.0000000000000000000, 0.0000000000000000000, -1.000000000000000000 ) ) ;
#125 = CARTESIAN_POINT ( 'NONE',  ( -8.750000000000000000, -6.250000000000000900, 0.0000000000000000000 ) ) ;
#126 = LINE ( 'NONE', #234, #205 ) ;
#127 = APPROVAL_STATUS ( 'not_yet_approved' ) ;
#128 = DIRECTION ( 'NONE',  ( 1.000000000000000000, 0.0000000000000000000, 0.0000000000000000000 ) ) ;
#129 = COORDINATED_UNIVERSAL_TIME_OFFSET ( 5, 0, .BEHIND. ) ;
#130 = DATE_TIME_ROLE ( 'classification_date' ) ;
#131 = ADVANCED_FACE ( 'NONE', ( #44 ), #57, .F. ) ;
#132 = LINE ( 'NONE', #227, #80 ) ;
#133 = PERSON_AND_ORGANIZATION ( #229, #185 ) ;
#134 = ORIENTED_EDGE ( 'NONE', *, *, #193, .T. ) ;
#135 = SHAPE_DEFINITION_REPRESENTATION ( #147, #67 ) ;
#136 = PLANE ( 'NONE',  #175 ) ;
#137 = ORIENTED_EDGE ( 'NONE', *, *, #49, .T. ) ;
#138 = DIRECTION ( 'NONE',  ( -0.0000000000000000000, 0.0000000000000000000, 1.000000000000000000 ) ) ;
#139 = CALENDAR_DATE ( 2017, 31, 1 ) ;
#140 = CARTESIAN_POINT ( 'NONE',  ( 8.750000000000014200, 6.249999999999999100, 0.0000000000000000000 ) ) ;
#141 = CARTESIAN_POINT ( 'NONE',  ( -8.750000000000000000, -6.250000000000000900, 3.000000000000000000 ) ) ;
#142 =( NAMED_UNIT ( * ) PLANE_ANGLE_UNIT ( ) SI_UNIT ( $, .RADIAN. ) );
#143 = COORDINATED_UNIVERSAL_TIME_OFFSET ( 5, 0, .BEHIND. ) ;
#144 = ADVANCED_FACE ( 'NONE', ( #202 ), #177, .F. ) ;
#145 = APPROVAL_ROLE ( '' ) ;
#146 = FACE_OUTER_BOUND ( 'NONE', #103, .T. ) ;
#147 = PRODUCT_DEFINITION_SHAPE ( 'NONE', 'NONE',  #166 ) ;
#148 = EDGE_CURVE ( 'NONE', #6, #232, #222, .T. ) ;
#149 = ORIENTED_EDGE ( 'NONE', *, *, #215, .F. ) ;
#150 = VERTEX_POINT ( 'NONE', #140 ) ;
#151 = LOCAL_TIME ( 14, 57, 7.000000000000000000, #129 ) ;
#152 = CARTESIAN_POINT ( 'NONE',  ( -8.750000000000000000, 6.249999999999999100, 0.0000000000000000000 ) ) ;
#153 = DESIGN_CONTEXT ( 'detailed design', #92, 'design' ) ;
#154 = EDGE_LOOP ( 'NONE', ( #149, #94, #218, #26 ) ) ;
#155 = CARTESIAN_POINT ( 'NONE',  ( -8.750000000000000000, 6.249999999999999100, 3.000000000000000000 ) ) ;
#156 = DIRECTION ( 'NONE',  ( -1.000000000000000000, 1.110223024625156300E-015, 0.0000000000000000000 ) ) ;
#157 = DIRECTION ( 'NONE',  ( 0.0000000000000000000, -1.000000000000000000, 0.0000000000000000000 ) ) ;
#158 = DIRECTION ( 'NONE',  ( 1.000000000000000000, 0.0000000000000000000, -0.0000000000000000000 ) ) ;
#159 = ADVANCED_FACE ( 'NONE', ( #210 ), #174, .F. ) ;
#160 = LINE ( 'NONE', #118, #165 ) ;
#161 = EDGE_CURVE ( 'NONE', #64, #150, #93, .T. ) ;
#162 = EDGE_CURVE ( 'NONE', #74, #232, #231, .T. ) ;
#163 = VECTOR ( 'NONE', #71, 1000.000000000000000 ) ;
#164 = PERSON_AND_ORGANIZATION ( #229, #185 ) ;
#165 = VECTOR ( 'NONE', #82, 1000.000000000000000 ) ;
#166 = PRODUCT_DEFINITION ( 'UNKNOWN', '', #90, #153 ) ;
#167 = COORDINATED_UNIVERSAL_TIME_OFFSET ( 5, 0, .BEHIND. ) ;
#168 = LINE ( 'NONE', #70, #87 ) ;
#169 = ORIENTED_EDGE ( 'NONE', *, *, #81, .T. ) ;
#170 = CARTESIAN_POINT ( 'NONE',  ( 8.750000000000014200, 6.249999999999999100, 3.000000000000000000 ) ) ;
#171 = APPROVAL_PERSON_ORGANIZATION ( #11, #172, #110 ) ;
#172 = APPROVAL ( #211, 'UNSPECIFIED' ) ;
#173 = CARTESIAN_POINT ( 'NONE',  ( -8.750000000000000000, -6.250000000000000900, 3.000000000000000000 ) ) ;
#174 = PLANE ( 'NONE',  #42 ) ;
#175 = AXIS2_PLACEMENT_3D ( 'NONE', #83, #157, #10 ) ;
#176 = ORIENTED_EDGE ( 'NONE', *, *, #201, .F. ) ;
#177 = PLANE ( 'NONE',  #13 ) ;
#178 = AXIS2_PLACEMENT_3D ( 'NONE', #123, #113, #128 ) ;
#179 = APPLICATION_PROTOCOL_DEFINITION ( 'international standard', 'config_control_design', 1994, #92 ) ;
#180 = VECTOR ( 'NONE', #72, 1000.000000000000000 ) ;
#181 = ORIENTED_EDGE ( 'NONE', *, *, #201, .T. ) ;
#182 = CC_DESIGN_PERSON_AND_ORGANIZATION_ASSIGNMENT ( #164, #112, ( #90 ) ) ;
#183 = DATE_AND_TIME ( #204, #20 ) ;
#184 = ORIENTED_EDGE ( 'NONE', *, *, #148, .F. ) ;
#185 = ORGANIZATION ( 'UNSPECIFIED', 'UNSPECIFIED', '' ) ;
#186 = ORIENTED_EDGE ( 'NONE', *, *, #15, .T. ) ;
#187 = ORIENTED_EDGE ( 'NONE', *, *, #15, .F. ) ;
#188 = CC_DESIGN_APPROVAL ( #73, ( #166 ) ) ;
#189 = CARTESIAN_POINT ( 'NONE',  ( 8.750000000000014200, 6.249999999999999100, 3.000000000000000000 ) ) ;
#190 = DATE_AND_TIME ( #236, #214 ) ;
#191 = EDGE_LOOP ( 'NONE', ( #47, #60, #1, #55 ) ) ;
#192 = PLANE ( 'NONE',  #226 ) ;
#193 = EDGE_CURVE ( 'NONE', #150, #99, #63, .T. ) ;
#194 = DIRECTION ( 'NONE',  ( 1.000000000000000000, 0.0000000000000000000, 0.0000000000000000000 ) ) ;
#195 = CC_DESIGN_DATE_AND_TIME_ASSIGNMENT ( #68, #130, ( #217 ) ) ;
#196 = EDGE_LOOP ( 'NONE', ( #18, #51, #176, #24 ) ) ;
#197 = VERTEX_POINT ( 'NONE', #105 ) ;
#198 = SECURITY_CLASSIFICATION_LEVEL ( 'unclassified' ) ;
#199 = DATE_TIME_ROLE ( 'creation_date' ) ;
#200 = CC_DESIGN_APPROVAL ( #172, ( #90 ) ) ;
#201 = EDGE_CURVE ( 'NONE', #6, #64, #132, .T. ) ;
#202 = FACE_OUTER_BOUND ( 'NONE', #191, .T. ) ;
#203 = EDGE_CURVE ( 'NONE', #99, #74, #168, .T. ) ;
#204 = CALENDAR_DATE ( 2017, 31, 1 ) ;
#205 = VECTOR ( 'NONE', #17, 1000.000000000000000 ) ;
#206 = CARTESIAN_POINT ( 'NONE',  ( -8.750000000000000000, -6.250000000000000900, 0.0000000000000000000 ) ) ;
#207 = DIRECTION ( 'NONE',  ( 0.0000000000000000000, 1.000000000000000000, 0.0000000000000000000 ) ) ;
#208 = AXIS2_PLACEMENT_3D ( 'NONE', #14, #138, #194 ) ;
#209 = CARTESIAN_POINT ( 'NONE',  ( -8.750000000000000000, 6.249999999999999100, 3.000000000000000000 ) ) ;
#210 = FACE_OUTER_BOUND ( 'NONE', #4, .T. ) ;
#211 = APPROVAL_STATUS ( 'not_yet_approved' ) ;
#212 = LINE ( 'NONE', #155, #216 ) ;
#213 = APPROVAL_ROLE ( '' ) ;
#214 = LOCAL_TIME ( 14, 57, 7.000000000000000000, #143 ) ;
#215 = EDGE_CURVE ( 'NONE', #232, #150, #126, .T. ) ;
#216 = VECTOR ( 'NONE', #52, 1000.000000000000000 ) ;
#217 = SECURITY_CLASSIFICATION ( '', '', #198 ) ;
#218 = ORIENTED_EDGE ( 'NONE', *, *, #203, .F. ) ;
#219 = PERSON_AND_ORGANIZATION ( #229, #185 ) ;
#220 = ORIENTED_EDGE ( 'NONE', *, *, #223, .T. ) ;
#221 = DIRECTION ( 'NONE',  ( -1.000000000000000000, -0.0000000000000000000, -0.0000000000000000000 ) ) ;
#222 = LINE ( 'NONE', #84, #22 ) ;
#223 = EDGE_CURVE ( 'NONE', #97, #74, #54, .T. ) ;
#224 = DIRECTION ( 'NONE',  ( 1.000000000000000000, 0.0000000000000000000, 0.0000000000000000000 ) ) ;
#225 = ORIENTED_EDGE ( 'NONE', *, *, #45, .F. ) ;
#226 = AXIS2_PLACEMENT_3D ( 'NONE', #102, #101, #224 ) ;
#227 = CARTESIAN_POINT ( 'NONE',  ( 8.750000000000014200, 6.249999999999999100, 3.000000000000000000 ) ) ;
#228 = DIRECTION ( 'NONE',  ( 1.110223024625156500E-015, 1.000000000000000000, -0.0000000000000000000 ) ) ;
#229 = PERSON ( 'UNSPECIFIED', 'UNSPECIFIED', 'UNSPECIFIED', ('UNSPECIFIED'), ('UNSPECIFIED'), ('UNSPECIFIED') ) ;
#230 = DATE_AND_TIME ( #139, #79 ) ;
#231 = LINE ( 'NONE', #125, #180 ) ;
#232 = VERTEX_POINT ( 'NONE', #36 ) ;
#233 = APPROVAL ( #235, 'UNSPECIFIED' ) ;
#234 = CARTESIAN_POINT ( 'NONE',  ( 8.750000000000014200, 6.249999999999999100, 0.0000000000000000000 ) ) ;
#235 = APPROVAL_STATUS ( 'not_yet_approved' ) ;
#236 = CALENDAR_DATE ( 2017, 31, 1 ) ;
#237 = CC_DESIGN_PERSON_AND_ORGANIZATION_ASSIGNMENT ( #43, #41, ( #90 ) ) ;
ENDSEC;
END-ISO-10303-21;
