ISO-10303-21;
HEADER;
FILE_DESCRIPTION (( 'STEP AP203' ),
    '1' );
FILE_NAME ('Web Model 46103_46103.step',
    '2017-03-01T20:55:37',
    ( '' ),
    ( '' ),
    'SwSTEP 2.0',
    'SolidWorks 2016',
    '' );
FILE_SCHEMA (( 'CONFIG_CONTROL_DESIGN' ));
ENDSEC;

DATA;
#1 = DIRECTION ( 'NONE',  ( 1.000000000000000000, 1.365923996832131600E-016, 0.0000000000000000000 ) ) ;
#2 = PLANE ( 'NONE',  #146 ) ;
#3 = PERSON_AND_ORGANIZATION_ROLE ( 'design_owner' ) ;
#4 = CC_DESIGN_PERSON_AND_ORGANIZATION_ASSIGNMENT ( #181, #3, ( #51 ) ) ;
#5 = APPLICATION_PROTOCOL_DEFINITION ( 'international standard', 'config_control_design', 1994, #82 ) ;
#6 = ORIENTED_EDGE ( 'NONE', *, *, #55, .F. ) ;
#7 = CALENDAR_DATE ( 2017, 1, 3 ) ;
#8 = CARTESIAN_POINT ( 'NONE',  ( -50.79999999999999700, 50.79999999999999700, 3.000000000000000000 ) ) ;
#9 = DIRECTION ( 'NONE',  ( 1.000000000000000000, 2.048885995248197400E-016, -0.0000000000000000000 ) ) ;
#10 = EDGE_LOOP ( 'NONE', ( #57, #192, #217, #6 ) ) ;
#11 = APPROVAL ( #228, 'UNSPECIFIED' ) ;
#12 = PERSON_AND_ORGANIZATION ( #70, #177 ) ;
#13 = APPROVAL_ROLE ( '' ) ;
#14 = PRODUCT_DEFINITION ( 'UNKNOWN', '', #237, #96 ) ;
#15 = EDGE_LOOP ( 'NONE', ( #129, #93, #185, #39 ) ) ;
#16 = CALENDAR_DATE ( 2017, 1, 3 ) ;
#17 = CARTESIAN_POINT ( 'NONE',  ( 50.79999999999999700, 50.79999999999999700, 0.0000000000000000000 ) ) ;
#18 = CARTESIAN_POINT ( 'NONE',  ( -50.79999999999999700, 50.79999999999999700, 0.0000000000000000000 ) ) ;
#19 = EDGE_CURVE ( 'NONE', #214, #97, #84, .T. ) ;
#20 = CARTESIAN_POINT ( 'NONE',  ( 0.0000000000000000000, 0.0000000000000000000, 0.0000000000000000000 ) ) ;
#21 = CC_DESIGN_APPROVAL ( #11, ( #237 ) ) ;
#22 = VECTOR ( 'NONE', #37, 1000.000000000000000 ) ;
#23 = CARTESIAN_POINT ( 'NONE',  ( -50.79999999999997600, -50.79999999999999700, 0.0000000000000000000 ) ) ;
#24 = VECTOR ( 'NONE', #216, 1000.000000000000000 ) ;
#25 = DIRECTION ( 'NONE',  ( -0.0000000000000000000, -0.0000000000000000000, -1.000000000000000000 ) ) ;
#26 = DATE_AND_TIME ( #87, #140 ) ;
#27 = APPROVAL ( #169, 'UNSPECIFIED' ) ;
#28 = DATE_AND_TIME ( #122, #35 ) ;
#29 = ORIENTED_EDGE ( 'NONE', *, *, #19, .T. ) ;
#30 = VECTOR ( 'NONE', #175, 1000.000000000000000 ) ;
#31 = VERTEX_POINT ( 'NONE', #100 ) ;
#32 = VECTOR ( 'NONE', #25, 1000.000000000000000 ) ;
#33 = EDGE_CURVE ( 'NONE', #47, #234, #144, .T. ) ;
#34 = PERSON_AND_ORGANIZATION_ROLE ( 'classification_officer' ) ;
#35 = LOCAL_TIME ( 15, 55, 37.00000000000000000, #127 ) ;
#36 = CC_DESIGN_PERSON_AND_ORGANIZATION_ASSIGNMENT ( #150, #44, ( #237 ) ) ;
#37 = DIRECTION ( 'NONE',  ( -1.365923996832131900E-016, 1.000000000000000000, -0.0000000000000000000 ) ) ;
#38 = LINE ( 'NONE', #167, #197 ) ;
#39 = ORIENTED_EDGE ( 'NONE', *, *, #33, .T. ) ;
#40 = DIRECTION ( 'NONE',  ( 2.048885995248197400E-016, -1.000000000000000000, 0.0000000000000000000 ) ) ;
#41 = LINE ( 'NONE', #110, #32 ) ;
#42 = APPROVAL_DATE_TIME ( #226, #27 ) ;
#43 = PERSON_AND_ORGANIZATION ( #70, #177 ) ;
#44 = PERSON_AND_ORGANIZATION_ROLE ( 'creator' ) ;
#45 = CC_DESIGN_APPROVAL ( #27, ( #14 ) ) ;
#46 = APPROVAL_DATE_TIME ( #173, #106 ) ;
#47 = VERTEX_POINT ( 'NONE', #209 ) ;
#48 = LINE ( 'NONE', #179, #67 ) ;
#49 = DIRECTION ( 'NONE',  ( 1.000000000000000000, 0.0000000000000000000, 0.0000000000000000000 ) ) ;
#50 = EDGE_CURVE ( 'NONE', #174, #47, #77, .T. ) ;
#51 = PRODUCT ( 'Web Model 46103_46103', 'Web Model 46103_46103', '', ( #103 ) ) ;
#52 = COORDINATED_UNIVERSAL_TIME_OFFSET ( 5, 0, .BEHIND. ) ;
#53 = CC_DESIGN_PERSON_AND_ORGANIZATION_ASSIGNMENT ( #111, #195, ( #237 ) ) ;
#54 = ORIENTED_EDGE ( 'NONE', *, *, #176, .T. ) ;
#55 = EDGE_CURVE ( 'NONE', #203, #214, #153, .T. ) ;
#56 = CC_DESIGN_PERSON_AND_ORGANIZATION_ASSIGNMENT ( #81, #121, ( #14 ) ) ;
#57 = ORIENTED_EDGE ( 'NONE', *, *, #131, .F. ) ;
#58 = ORIENTED_EDGE ( 'NONE', *, *, #147, .T. ) ;
#59 = CARTESIAN_POINT ( 'NONE',  ( -50.79999999999997600, -50.79999999999999700, 3.000000000000000000 ) ) ;
#60 = VECTOR ( 'NONE', #101, 1000.000000000000000 ) ;
#61 = AXIS2_PLACEMENT_3D ( 'NONE', #199, #124, #49 ) ;
#62 = EDGE_CURVE ( 'NONE', #31, #174, #38, .T. ) ;
#63 =( LENGTH_UNIT ( ) NAMED_UNIT ( * ) SI_UNIT ( .MILLI., .METRE. ) );
#64 = APPROVAL_ROLE ( '' ) ;
#65 = SECURITY_CLASSIFICATION ( '', '', #224 ) ;
#66 = ORIENTED_EDGE ( 'NONE', *, *, #33, .F. ) ;
#67 = VECTOR ( 'NONE', #126, 1000.000000000000000 ) ;
#68 = PLANE ( 'NONE',  #139 ) ;
#69 = CARTESIAN_POINT ( 'NONE',  ( 50.80000000000001100, -50.79999999999998300, 3.000000000000000000 ) ) ;
#70 = PERSON ( 'UNSPECIFIED', 'UNSPECIFIED', 'UNSPECIFIED', ('UNSPECIFIED'), ('UNSPECIFIED'), ('UNSPECIFIED') ) ;
#71 = CARTESIAN_POINT ( 'NONE',  ( -50.79999999999999700, 50.79999999999999700, 3.000000000000000000 ) ) ;
#72 = CC_DESIGN_DATE_AND_TIME_ASSIGNMENT ( #26, #194, ( #14 ) ) ;
#73 = DATE_TIME_ROLE ( 'classification_date' ) ;
#74 = CC_DESIGN_PERSON_AND_ORGANIZATION_ASSIGNMENT ( #12, #34, ( #65 ) ) ;
#75 = CARTESIAN_POINT ( 'NONE',  ( 0.0000000000000000000, 0.0000000000000000000, 0.0000000000000000000 ) ) ;
#76 = EDGE_CURVE ( 'NONE', #234, #31, #165, .T. ) ;
#77 = LINE ( 'NONE', #208, #207 ) ;
#78 = ORIENTED_EDGE ( 'NONE', *, *, #62, .F. ) ;
#79 = FACE_OUTER_BOUND ( 'NONE', #114, .T. ) ;
#80 = APPLICATION_CONTEXT ( 'configuration controlled 3d designs of mechanical parts and assemblies' ) ;
#81 = PERSON_AND_ORGANIZATION ( #70, #177 ) ;
#82 = APPLICATION_CONTEXT ( 'configuration controlled 3d designs of mechanical parts and assemblies' ) ;
#83 = COORDINATED_UNIVERSAL_TIME_OFFSET ( 5, 0, .BEHIND. ) ;
#84 = LINE ( 'NONE', #155, #22 ) ;
#85 = DIRECTION ( 'NONE',  ( 0.0000000000000000000, -1.000000000000000000, 0.0000000000000000000 ) ) ;
#86 = PLANE ( 'NONE',  #61 ) ;
#87 = CALENDAR_DATE ( 2017, 1, 3 ) ;
#88 = LOCAL_TIME ( 15, 55, 37.00000000000000000, #141 ) ;
#89 = DIRECTION ( 'NONE',  ( 0.0000000000000000000, -0.0000000000000000000, -1.000000000000000000 ) ) ;
#90 = ADVANCED_BREP_SHAPE_REPRESENTATION ( 'Web Model 46103_46103', ( #204, #233 ), #170 ) ;
#91 = PERSON_AND_ORGANIZATION ( #70, #177 ) ;
#92 = CC_DESIGN_DATE_AND_TIME_ASSIGNMENT ( #189, #73, ( #65 ) ) ;
#93 = ORIENTED_EDGE ( 'NONE', *, *, #62, .T. ) ;
#94 = VECTOR ( 'NONE', #220, 1000.000000000000000 ) ;
#95 = APPROVAL_PERSON_ORGANIZATION ( #187, #11, #138 ) ;
#96 = DESIGN_CONTEXT ( 'detailed design', #80, 'design' ) ;
#97 = VERTEX_POINT ( 'NONE', #17 ) ;
#98 = ORIENTED_EDGE ( 'NONE', *, *, #157, .F. ) ;
#99 = CARTESIAN_POINT ( 'NONE',  ( -50.79999999999999700, 50.79999999999999700, 3.000000000000000000 ) ) ;
#100 = CARTESIAN_POINT ( 'NONE',  ( -50.79999999999997600, -50.79999999999999700, 3.000000000000000000 ) ) ;
#101 = DIRECTION ( 'NONE',  ( -1.000000000000000000, -0.0000000000000000000, -0.0000000000000000000 ) ) ;
#102 = APPLICATION_PROTOCOL_DEFINITION ( 'international standard', 'config_control_design', 1994, #80 ) ;
#103 = MECHANICAL_CONTEXT ( 'NONE', #82, 'mechanical' ) ;
#104 = PLANE ( 'NONE',  #188 ) ;
#105 = EDGE_LOOP ( 'NONE', ( #133, #136, #66, #107 ) ) ;
#106 = APPROVAL ( #113, 'UNSPECIFIED' ) ;
#107 = ORIENTED_EDGE ( 'NONE', *, *, #157, .T. ) ;
#108 = CARTESIAN_POINT ( 'NONE',  ( -50.79999999999999700, 50.79999999999999700, 3.000000000000000000 ) ) ;
#109 = DIRECTION ( 'NONE',  ( -2.048885995248197400E-016, 1.000000000000000000, 0.0000000000000000000 ) ) ;
#110 = CARTESIAN_POINT ( 'NONE',  ( 50.80000000000001100, -50.79999999999998300, 3.000000000000000000 ) ) ;
#111 = PERSON_AND_ORGANIZATION ( #70, #177 ) ;
#112 = ADVANCED_FACE ( 'NONE', ( #123 ), #210, .F. ) ;
#113 = APPROVAL_STATUS ( 'not_yet_approved' ) ;
#114 = EDGE_LOOP ( 'NONE', ( #230, #154, #198, #219 ) ) ;
#115 = CC_DESIGN_APPROVAL ( #106, ( #65 ) ) ;
#116 = AXIS2_PLACEMENT_3D ( 'NONE', #75, #222, #193 ) ;
#117 = LINE ( 'NONE', #200, #211 ) ;
#118 = ADVANCED_FACE ( 'NONE', ( #168 ), #2, .F. ) ;
#119 =( NAMED_UNIT ( * ) PLANE_ANGLE_UNIT ( ) SI_UNIT ( $, .RADIAN. ) );
#120 = DIRECTION ( 'NONE',  ( 1.000000000000000000, 0.0000000000000000000, 0.0000000000000000000 ) ) ;
#121 = PERSON_AND_ORGANIZATION_ROLE ( 'creator' ) ;
#122 = CALENDAR_DATE ( 2017, 1, 3 ) ;
#123 = FACE_OUTER_BOUND ( 'NONE', #10, .T. ) ;
#124 = DIRECTION ( 'NONE',  ( -0.0000000000000000000, 0.0000000000000000000, 1.000000000000000000 ) ) ;
#125 = LINE ( 'NONE', #162, #24 ) ;
#126 = DIRECTION ( 'NONE',  ( -0.0000000000000000000, -0.0000000000000000000, -1.000000000000000000 ) ) ;
#127 = COORDINATED_UNIVERSAL_TIME_OFFSET ( 5, 0, .BEHIND. ) ;
#128 = CC_DESIGN_SECURITY_CLASSIFICATION ( #65, ( #237 ) ) ;
#129 = ORIENTED_EDGE ( 'NONE', *, *, #76, .T. ) ;
#130 = EDGE_CURVE ( 'NONE', #234, #190, #184, .T. ) ;
#131 = EDGE_CURVE ( 'NONE', #190, #203, #117, .T. ) ;
#132 = APPROVAL_PERSON_ORGANIZATION ( #43, #27, #64 ) ;
#133 = ORIENTED_EDGE ( 'NONE', *, *, #206, .T. ) ;
#134 = CARTESIAN_POINT ( 'NONE',  ( -50.79999999999997600, -50.79999999999999700, 0.0000000000000000000 ) ) ;
#135 = FACE_OUTER_BOUND ( 'NONE', #15, .T. ) ;
#136 = ORIENTED_EDGE ( 'NONE', *, *, #130, .F. ) ;
#137 = FACE_OUTER_BOUND ( 'NONE', #105, .T. ) ;
#138 = APPROVAL_ROLE ( '' ) ;
#139 = AXIS2_PLACEMENT_3D ( 'NONE', #8, #9, #109 ) ;
#140 = LOCAL_TIME ( 15, 55, 37.00000000000000000, #232 ) ;
#141 = COORDINATED_UNIVERSAL_TIME_OFFSET ( 5, 0, .BEHIND. ) ;
#142 = DIRECTION ( 'NONE',  ( -1.000000000000000000, -0.0000000000000000000, -0.0000000000000000000 ) ) ;
#143 = APPROVAL_DATE_TIME ( #28, #11 ) ;
#144 = LINE ( 'NONE', #223, #60 ) ;
#145 = PRODUCT_RELATED_PRODUCT_CATEGORY ( 'detail', '', ( #51 ) ) ;
#146 = AXIS2_PLACEMENT_3D ( 'NONE', #59, #156, #160 ) ;
#147 = EDGE_CURVE ( 'NONE', #31, #203, #48, .T. ) ;
#148 = SHAPE_DEFINITION_REPRESENTATION ( #201, #90 ) ;
#149 = CARTESIAN_POINT ( 'NONE',  ( -50.79999999999999700, 50.79999999999999700, 0.0000000000000000000 ) ) ;
#150 = PERSON_AND_ORGANIZATION ( #70, #177 ) ;
#151 = ORIENTED_EDGE ( 'NONE', *, *, #176, .F. ) ;
#152 = ADVANCED_FACE ( 'NONE', ( #135 ), #86, .T. ) ;
#153 = LINE ( 'NONE', #134, #94 ) ;
#154 = ORIENTED_EDGE ( 'NONE', *, *, #147, .F. ) ;
#155 = CARTESIAN_POINT ( 'NONE',  ( 50.79999999999999700, 50.79999999999999700, 0.0000000000000000000 ) ) ;
#156 = DIRECTION ( 'NONE',  ( -1.365923996832131600E-016, 1.000000000000000000, 0.0000000000000000000 ) ) ;
#157 = EDGE_CURVE ( 'NONE', #47, #97, #125, .T. ) ;
#158 =( NAMED_UNIT ( * ) SI_UNIT ( $, .STERADIAN. ) SOLID_ANGLE_UNIT ( ) );
#159 = UNCERTAINTY_MEASURE_WITH_UNIT (LENGTH_MEASURE( 1.000000000000000100E-005 ), #63, 'distance_accuracy_value', 'NONE');
#160 = DIRECTION ( 'NONE',  ( -1.000000000000000000, -1.365923996832131600E-016, 0.0000000000000000000 ) ) ;
#161 = AXIS2_PLACEMENT_3D ( 'NONE', #108, #85, #89 ) ;
#162 = CARTESIAN_POINT ( 'NONE',  ( 50.79999999999999700, 50.79999999999999700, 3.000000000000000000 ) ) ;
#163 = EDGE_LOOP ( 'NONE', ( #29, #98, #196, #54 ) ) ;
#164 = ORIENTED_EDGE ( 'NONE', *, *, #55, .T. ) ;
#165 = LINE ( 'NONE', #99, #221 ) ;
#166 = LOCAL_TIME ( 15, 55, 37.00000000000000000, #83 ) ;
#167 = CARTESIAN_POINT ( 'NONE',  ( -50.79999999999997600, -50.79999999999999700, 3.000000000000000000 ) ) ;
#168 = FACE_OUTER_BOUND ( 'NONE', #235, .T. ) ;
#169 = APPROVAL_STATUS ( 'not_yet_approved' ) ;
#170 =( GEOMETRIC_REPRESENTATION_CONTEXT ( 3 ) GLOBAL_UNCERTAINTY_ASSIGNED_CONTEXT ( ( #159 ) ) GLOBAL_UNIT_ASSIGNED_CONTEXT ( ( #63, #119, #158 ) ) REPRESENTATION_CONTEXT ( 'NONE', 'WORKASPACE' ) );
#171 = DIRECTION ( 'NONE',  ( 0.0000000000000000000, 0.0000000000000000000, 1.000000000000000000 ) ) ;
#172 = DIRECTION ( 'NONE',  ( 1.365923996832131900E-016, -1.000000000000000000, 0.0000000000000000000 ) ) ;
#173 = DATE_AND_TIME ( #16, #202 ) ;
#174 = VERTEX_POINT ( 'NONE', #69 ) ;
#175 = DIRECTION ( 'NONE',  ( -0.0000000000000000000, -0.0000000000000000000, -1.000000000000000000 ) ) ;
#176 = EDGE_CURVE ( 'NONE', #174, #214, #41, .T. ) ;
#177 = ORGANIZATION ( 'UNSPECIFIED', 'UNSPECIFIED', '' ) ;
#178 = CARTESIAN_POINT ( 'NONE',  ( -50.79999999999999700, 50.79999999999999700, 3.000000000000000000 ) ) ;
#179 = CARTESIAN_POINT ( 'NONE',  ( -50.79999999999997600, -50.79999999999999700, 3.000000000000000000 ) ) ;
#180 = CALENDAR_DATE ( 2017, 1, 3 ) ;
#181 = PERSON_AND_ORGANIZATION ( #70, #177 ) ;
#182 = ADVANCED_FACE ( 'NONE', ( #79 ), #68, .F. ) ;
#183 = CLOSED_SHELL ( 'NONE', ( #182, #118, #236, #205, #152, #112 ) ) ;
#184 = LINE ( 'NONE', #178, #30 ) ;
#185 = ORIENTED_EDGE ( 'NONE', *, *, #50, .T. ) ;
#186 = LINE ( 'NONE', #18, #218 ) ;
#187 = PERSON_AND_ORGANIZATION ( #70, #177 ) ;
#188 = AXIS2_PLACEMENT_3D ( 'NONE', #227, #212, #172 ) ;
#189 = DATE_AND_TIME ( #7, #166 ) ;
#190 = VERTEX_POINT ( 'NONE', #149 ) ;
#191 = DIRECTION ( 'NONE',  ( -1.365923996832131900E-016, 1.000000000000000000, -0.0000000000000000000 ) ) ;
#192 = ORIENTED_EDGE ( 'NONE', *, *, #206, .F. ) ;
#193 = DIRECTION ( 'NONE',  ( 1.000000000000000000, 0.0000000000000000000, 0.0000000000000000000 ) ) ;
#194 = DATE_TIME_ROLE ( 'creation_date' ) ;
#195 = PERSON_AND_ORGANIZATION_ROLE ( 'design_supplier' ) ;
#196 = ORIENTED_EDGE ( 'NONE', *, *, #50, .F. ) ;
#197 = VECTOR ( 'NONE', #1, 1000.000000000000000 ) ;
#198 = ORIENTED_EDGE ( 'NONE', *, *, #76, .F. ) ;
#199 = CARTESIAN_POINT ( 'NONE',  ( 0.0000000000000000000, 0.0000000000000000000, 3.000000000000000000 ) ) ;
#200 = CARTESIAN_POINT ( 'NONE',  ( -50.79999999999999700, 50.79999999999999700, 0.0000000000000000000 ) ) ;
#201 = PRODUCT_DEFINITION_SHAPE ( 'NONE', 'NONE',  #14 ) ;
#202 = LOCAL_TIME ( 15, 55, 37.00000000000000000, #52 ) ;
#203 = VERTEX_POINT ( 'NONE', #23 ) ;
#204 = MANIFOLD_SOLID_BREP ( 'Boss-Extrude1', #183 ) ;
#205 = ADVANCED_FACE ( 'NONE', ( #137 ), #231, .F. ) ;
#206 = EDGE_CURVE ( 'NONE', #97, #190, #186, .T. ) ;
#207 = VECTOR ( 'NONE', #191, 1000.000000000000000 ) ;
#208 = CARTESIAN_POINT ( 'NONE',  ( 50.79999999999999700, 50.79999999999999700, 3.000000000000000000 ) ) ;
#209 = CARTESIAN_POINT ( 'NONE',  ( 50.79999999999999700, 50.79999999999999700, 3.000000000000000000 ) ) ;
#210 = PLANE ( 'NONE',  #116 ) ;
#211 = VECTOR ( 'NONE', #215, 1000.000000000000000 ) ;
#212 = DIRECTION ( 'NONE',  ( -1.000000000000000000, -1.365923996832131900E-016, 0.0000000000000000000 ) ) ;
#213 = CARTESIAN_POINT ( 'NONE',  ( 50.80000000000001100, -50.79999999999998300, 0.0000000000000000000 ) ) ;
#214 = VERTEX_POINT ( 'NONE', #213 ) ;
#215 = DIRECTION ( 'NONE',  ( 2.048885995248197400E-016, -1.000000000000000000, 0.0000000000000000000 ) ) ;
#216 = DIRECTION ( 'NONE',  ( -0.0000000000000000000, -0.0000000000000000000, -1.000000000000000000 ) ) ;
#217 = ORIENTED_EDGE ( 'NONE', *, *, #19, .F. ) ;
#218 = VECTOR ( 'NONE', #142, 1000.000000000000000 ) ;
#219 = ORIENTED_EDGE ( 'NONE', *, *, #130, .T. ) ;
#220 = DIRECTION ( 'NONE',  ( 1.000000000000000000, 1.365923996832131600E-016, 0.0000000000000000000 ) ) ;
#221 = VECTOR ( 'NONE', #40, 1000.000000000000000 ) ;
#222 = DIRECTION ( 'NONE',  ( -0.0000000000000000000, 0.0000000000000000000, 1.000000000000000000 ) ) ;
#223 = CARTESIAN_POINT ( 'NONE',  ( -50.79999999999999700, 50.79999999999999700, 3.000000000000000000 ) ) ;
#224 = SECURITY_CLASSIFICATION_LEVEL ( 'unclassified' ) ;
#225 = FACE_OUTER_BOUND ( 'NONE', #163, .T. ) ;
#226 = DATE_AND_TIME ( #180, #88 ) ;
#227 = CARTESIAN_POINT ( 'NONE',  ( 50.79999999999999700, 50.79999999999999700, 3.000000000000000000 ) ) ;
#228 = APPROVAL_STATUS ( 'not_yet_approved' ) ;
#229 = APPROVAL_PERSON_ORGANIZATION ( #91, #106, #13 ) ;
#230 = ORIENTED_EDGE ( 'NONE', *, *, #131, .T. ) ;
#231 = PLANE ( 'NONE',  #161 ) ;
#232 = COORDINATED_UNIVERSAL_TIME_OFFSET ( 5, 0, .BEHIND. ) ;
#233 = AXIS2_PLACEMENT_3D ( 'NONE', #20, #171, #120 ) ;
#234 = VERTEX_POINT ( 'NONE', #71 ) ;
#235 = EDGE_LOOP ( 'NONE', ( #164, #151, #78, #58 ) ) ;
#236 = ADVANCED_FACE ( 'NONE', ( #225 ), #104, .F. ) ;
#237 = PRODUCT_DEFINITION_FORMATION_WITH_SPECIFIED_SOURCE ( 'ANY', '', #51, .NOT_KNOWN. ) ;
ENDSEC;
END-ISO-10303-21;
