ISO-10303-21;
HEADER;
FILE_DESCRIPTION (( 'STEP AP203' ),
    '1' );
FILE_NAME ('Web Model 14955_14968.step',
    '2021-06-14T15:20:04',
    ( '' ),
    ( '' ),
    'SwSTEP 2.0',
    'SolidWorks 2018',
    '' );
FILE_SCHEMA (( 'CONFIG_CONTROL_DESIGN' ));
ENDSEC;

DATA;
#1 = VERTEX_POINT ( 'NONE', #165 ) ;
#2 = UNCERTAINTY_MEASURE_WITH_UNIT (LENGTH_MEASURE( 1.000000000000000082E-05 ), #131, 'distance_accuracy_value', 'NONE');
#3 = CIRCLE ( 'NONE', #81, 2.499999999999998668 ) ;
#4 = LOCAL_TIME ( 11, 20, 4.000000000000000000, #8 ) ;
#5 = LINE ( 'NONE', #173, #55 ) ;
#6 = VERTEX_POINT ( 'NONE', #88 ) ;
#7 = PERSON_AND_ORGANIZATION_ROLE ( 'design_supplier' ) ;
#8 = COORDINATED_UNIVERSAL_TIME_OFFSET ( 5, 0, .BEHIND. ) ;
#9 = MECHANICAL_CONTEXT ( 'NONE', #68, 'mechanical' ) ;
#10 = DIRECTION ( 'NONE',  ( 0.000000000000000000, 0.000000000000000000, -1.000000000000000000 ) ) ;
#11 = DIRECTION ( 'NONE',  ( 0.000000000000000000, 0.000000000000000000, 1.000000000000000000 ) ) ;
#12 = LINE ( 'NONE', #119, #71 ) ;
#13 = CALENDAR_DATE ( 2021, 14, 6 ) ;
#14 = CC_DESIGN_SECURITY_CLASSIFICATION ( #40, ( #67 ) ) ;
#15 = CIRCLE ( 'NONE', #154, 2.499999999999998668 ) ;
#16 = EDGE_CURVE ( 'NONE', #162, #1, #15, .T. ) ;
#17 = PERSON_AND_ORGANIZATION ( #84, #163 ) ;
#18 = DIRECTION ( 'NONE',  ( -1.000000000000000000, -0.000000000000000000, -0.000000000000000000 ) ) ;
#19 = APPROVAL ( #50, 'UNSPECIFIED' ) ;
#20 = DIRECTION ( 'NONE',  ( 1.000000000000000000, 0.000000000000000000, 0.000000000000000000 ) ) ;
#21 = CALENDAR_DATE ( 2021, 14, 6 ) ;
#22 = APPLICATION_PROTOCOL_DEFINITION ( 'international standard', 'config_control_design', 1994, #102 ) ;
#23 = ORIENTED_EDGE ( 'NONE', *, *, #70, .T. ) ;
#24 = DIRECTION ( 'NONE',  ( 1.000000000000000000, 0.000000000000000000, 0.000000000000000000 ) ) ;
#25 = APPROVAL_ROLE ( '' ) ;
#26 = DESIGN_CONTEXT ( 'detailed design', #102, 'design' ) ;
#27 = PERSON_AND_ORGANIZATION ( #84, #163 ) ;
#28 = AXIS2_PLACEMENT_3D ( 'NONE', #34, #104, #10 ) ;
#29 = PERSON_AND_ORGANIZATION ( #84, #163 ) ;
#30 = DIRECTION ( 'NONE',  ( 1.000000000000000000, 0.000000000000000000, 0.000000000000000000 ) ) ;
#31 = ORIENTED_EDGE ( 'NONE', *, *, #16, .F. ) ;
#32 = DIRECTION ( 'NONE',  ( 1.000000000000000000, 0.000000000000000000, 0.000000000000000000 ) ) ;
#33 = PERSON_AND_ORGANIZATION_ROLE ( 'classification_officer' ) ;
#34 = CARTESIAN_POINT ( 'NONE',  ( -0.5000000000000000000, 0.000000000000000000, 0.000000000000000000 ) ) ;
#35 = EDGE_CURVE ( 'NONE', #1, #162, #36, .T. ) ;
#36 = CIRCLE ( 'NONE', #172, 2.499999999999998668 ) ;
#37 = ORIENTED_EDGE ( 'NONE', *, *, #83, .T. ) ;
#38 = AXIS2_PLACEMENT_3D ( 'NONE', #66, #24, #174 ) ;
#39 = COORDINATED_UNIVERSAL_TIME_OFFSET ( 5, 0, .BEHIND. ) ;
#40 = SECURITY_CLASSIFICATION ( '', '', #118 ) ;
#41 = COORDINATED_UNIVERSAL_TIME_OFFSET ( 5, 0, .BEHIND. ) ;
#42 = DATE_AND_TIME ( #47, #4 ) ;
#43 = FACE_OUTER_BOUND ( 'NONE', #77, .T. ) ;
#44 =( GEOMETRIC_REPRESENTATION_CONTEXT ( 3 ) GLOBAL_UNCERTAINTY_ASSIGNED_CONTEXT ( ( #2 ) ) GLOBAL_UNIT_ASSIGNED_CONTEXT ( ( #131, #92, #170 ) ) REPRESENTATION_CONTEXT ( 'NONE', 'WORKASPACE' ) );
#45 = PRODUCT_DEFINITION_SHAPE ( 'NONE', 'NONE',  #98 ) ;
#46 = CARTESIAN_POINT ( 'NONE',  ( 0.5000000000000000000, 0.000000000000000000, 2.499999999999998668 ) ) ;
#47 = CALENDAR_DATE ( 2021, 14, 6 ) ;
#48 = DIRECTION ( 'NONE',  ( 0.000000000000000000, 0.000000000000000000, 1.000000000000000000 ) ) ;
#49 = AXIS2_PLACEMENT_3D ( 'NONE', #139, #94, #48 ) ;
#50 = APPROVAL_STATUS ( 'not_yet_approved' ) ;
#51 = FACE_OUTER_BOUND ( 'NONE', #159, .T. ) ;
#52 = DIRECTION ( 'NONE',  ( 0.000000000000000000, 0.000000000000000000, -1.000000000000000000 ) ) ;
#53 = DATE_AND_TIME ( #121, #111 ) ;
#54 = PERSON_AND_ORGANIZATION ( #84, #163 ) ;
#55 = VECTOR ( 'NONE', #61, 1000.000000000000000 ) ;
#56 = CC_DESIGN_PERSON_AND_ORGANIZATION_ASSIGNMENT ( #27, #63, ( #122 ) ) ;
#57 = ADVANCED_FACE ( 'NONE', ( #79 ), #153, .T. ) ;
#58 = CC_DESIGN_APPROVAL ( #106, ( #98 ) ) ;
#59 = ORIENTED_EDGE ( 'NONE', *, *, #35, .F. ) ;
#60 = DATE_TIME_ROLE ( 'creation_date' ) ;
#61 = DIRECTION ( 'NONE',  ( -1.000000000000000000, -0.000000000000000000, -0.000000000000000000 ) ) ;
#62 = SHAPE_DEFINITION_REPRESENTATION ( #45, #134 ) ;
#63 = PERSON_AND_ORGANIZATION_ROLE ( 'design_owner' ) ;
#64 = MANIFOLD_SOLID_BREP ( 'Boss-Extrude1', #96 ) ;
#65 = PERSON_AND_ORGANIZATION ( #84, #163 ) ;
#66 = CARTESIAN_POINT ( 'NONE',  ( 0.5000000000000000000, 0.000000000000000000, 0.000000000000000000 ) ) ;
#67 = PRODUCT_DEFINITION_FORMATION_WITH_SPECIFIED_SOURCE ( 'ANY', '', #122, .NOT_KNOWN. ) ;
#68 = APPLICATION_CONTEXT ( 'configuration controlled 3d designs of mechanical parts and assemblies' ) ;
#69 = VERTEX_POINT ( 'NONE', #103 ) ;
#70 = EDGE_CURVE ( 'NONE', #162, #69, #5, .T. ) ;
#71 = VECTOR ( 'NONE', #116, 1000.000000000000000 ) ;
#72 = CC_DESIGN_APPROVAL ( #19, ( #40 ) ) ;
#73 = DIRECTION ( 'NONE',  ( 0.000000000000000000, 0.000000000000000000, 1.000000000000000000 ) ) ;
#74 = CARTESIAN_POINT ( 'NONE',  ( 0.5000000000000000000, 0.000000000000000000, 0.000000000000000000 ) ) ;
#75 = ORIENTED_EDGE ( 'NONE', *, *, #128, .T. ) ;
#76 = CARTESIAN_POINT ( 'NONE',  ( 0.5000000000000000000, 0.000000000000000000, 0.000000000000000000 ) ) ;
#77 = EDGE_LOOP ( 'NONE', ( #59, #169, #37, #107 ) ) ;
#78 = CC_DESIGN_DATE_AND_TIME_ASSIGNMENT ( #130, #60, ( #98 ) ) ;
#79 = FACE_OUTER_BOUND ( 'NONE', #109, .T. ) ;
#80 = CC_DESIGN_PERSON_AND_ORGANIZATION_ASSIGNMENT ( #54, #7, ( #67 ) ) ;
#81 = AXIS2_PLACEMENT_3D ( 'NONE', #124, #30, #52 ) ;
#82 = ORIENTED_EDGE ( 'NONE', *, *, #35, .T. ) ;
#83 = EDGE_CURVE ( 'NONE', #6, #69, #85, .T. ) ;
#84 = PERSON ( 'UNSPECIFIED', 'UNSPECIFIED', 'UNSPECIFIED', ('UNSPECIFIED'), ('UNSPECIFIED'), ('UNSPECIFIED') ) ;
#85 = CIRCLE ( 'NONE', #28, 2.499999999999998668 ) ;
#86 = LOCAL_TIME ( 11, 20, 4.000000000000000000, #41 ) ;
#87 = PRODUCT_RELATED_PRODUCT_CATEGORY ( 'detail', '', ( #122 ) ) ;
#88 = CARTESIAN_POINT ( 'NONE',  ( -0.5000000000000000000, 3.061616997868381662E-16, -2.499999999999998668 ) ) ;
#89 = AXIS2_PLACEMENT_3D ( 'NONE', #95, #11, #20 ) ;
#90 = PERSON_AND_ORGANIZATION ( #84, #163 ) ;
#91 = PERSON_AND_ORGANIZATION_ROLE ( 'creator' ) ;
#92 =( NAMED_UNIT ( * ) PLANE_ANGLE_UNIT ( ) SI_UNIT ( $, .RADIAN. ) );
#93 = ORIENTED_EDGE ( 'NONE', *, *, #158, .F. ) ;
#94 = DIRECTION ( 'NONE',  ( -1.000000000000000000, -0.000000000000000000, -0.000000000000000000 ) ) ;
#95 = CARTESIAN_POINT ( 'NONE',  ( 0.000000000000000000, 0.000000000000000000, 0.000000000000000000 ) ) ;
#96 = CLOSED_SHELL ( 'NONE', ( #160, #57, #145, #144 ) ) ;
#97 = COORDINATED_UNIVERSAL_TIME_OFFSET ( 5, 0, .BEHIND. ) ;
#98 = PRODUCT_DEFINITION ( 'UNKNOWN', '', #67, #26 ) ;
#99 = DATE_AND_TIME ( #21, #156 ) ;
#100 = DIRECTION ( 'NONE',  ( 1.000000000000000000, 0.000000000000000000, 0.000000000000000000 ) ) ;
#101 = APPLICATION_PROTOCOL_DEFINITION ( 'international standard', 'config_control_design', 1994, #68 ) ;
#102 = APPLICATION_CONTEXT ( 'configuration controlled 3d designs of mechanical parts and assemblies' ) ;
#103 = CARTESIAN_POINT ( 'NONE',  ( -0.5000000000000000000, 0.000000000000000000, 2.499999999999998668 ) ) ;
#104 = DIRECTION ( 'NONE',  ( 1.000000000000000000, 0.000000000000000000, 0.000000000000000000 ) ) ;
#105 = CC_DESIGN_APPROVAL ( #108, ( #67 ) ) ;
#106 = APPROVAL ( #114, 'UNSPECIFIED' ) ;
#107 = ORIENTED_EDGE ( 'NONE', *, *, #70, .F. ) ;
#108 = APPROVAL ( #149, 'UNSPECIFIED' ) ;
#109 = EDGE_LOOP ( 'NONE', ( #93, #31, #23, #75 ) ) ;
#110 = ORIENTED_EDGE ( 'NONE', *, *, #83, .F. ) ;
#111 = LOCAL_TIME ( 11, 20, 4.000000000000000000, #39 ) ;
#112 = ORIENTED_EDGE ( 'NONE', *, *, #128, .F. ) ;
#113 = CARTESIAN_POINT ( 'NONE',  ( 0.5000000000000000000, 0.000000000000000000, 0.000000000000000000 ) ) ;
#114 = APPROVAL_STATUS ( 'not_yet_approved' ) ;
#115 = AXIS2_PLACEMENT_3D ( 'NONE', #74, #18, #73 ) ;
#116 = DIRECTION ( 'NONE',  ( -1.000000000000000000, -0.000000000000000000, -0.000000000000000000 ) ) ;
#117 = APPROVAL_PERSON_ORGANIZATION ( #17, #108, #167 ) ;
#118 = SECURITY_CLASSIFICATION_LEVEL ( 'unclassified' ) ;
#119 = CARTESIAN_POINT ( 'NONE',  ( 0.5000000000000000000, 3.061616997868381662E-16, -2.499999999999998668 ) ) ;
#120 = DATE_AND_TIME ( #13, #150 ) ;
#121 = CALENDAR_DATE ( 2021, 14, 6 ) ;
#122 = PRODUCT ( 'Web Model 14955_14968', 'Web Model 14955_14968', '', ( #9 ) ) ;
#123 = CC_DESIGN_PERSON_AND_ORGANIZATION_ASSIGNMENT ( #90, #91, ( #67 ) ) ;
#124 = CARTESIAN_POINT ( 'NONE',  ( -0.5000000000000000000, 0.000000000000000000, 0.000000000000000000 ) ) ;
#125 = CC_DESIGN_PERSON_AND_ORGANIZATION_ASSIGNMENT ( #29, #33, ( #40 ) ) ;
#126 = DATE_TIME_ROLE ( 'classification_date' ) ;
#127 = PERSON_AND_ORGANIZATION ( #84, #163 ) ;
#128 = EDGE_CURVE ( 'NONE', #69, #6, #3, .T. ) ;
#129 = DIRECTION ( 'NONE',  ( 0.000000000000000000, 0.000000000000000000, -1.000000000000000000 ) ) ;
#130 = DATE_AND_TIME ( #148, #86 ) ;
#131 =( LENGTH_UNIT ( ) NAMED_UNIT ( * ) SI_UNIT ( .MILLI., .METRE. ) );
#132 = EDGE_LOOP ( 'NONE', ( #143, #82 ) ) ;
#133 = COORDINATED_UNIVERSAL_TIME_OFFSET ( 5, 0, .BEHIND. ) ;
#134 = ADVANCED_BREP_SHAPE_REPRESENTATION ( 'Web Model 14955_14968', ( #64, #89 ), #44 ) ;
#135 = APPROVAL_ROLE ( '' ) ;
#136 = FACE_OUTER_BOUND ( 'NONE', #132, .T. ) ;
#137 = CC_DESIGN_PERSON_AND_ORGANIZATION_ASSIGNMENT ( #146, #151, ( #98 ) ) ;
#138 = APPROVAL_PERSON_ORGANIZATION ( #65, #19, #25 ) ;
#139 = CARTESIAN_POINT ( 'NONE',  ( 0.5000000000000000000, 0.000000000000000000, 0.000000000000000000 ) ) ;
#140 = PLANE ( 'NONE',  #168 ) ;
#141 = CYLINDRICAL_SURFACE ( 'NONE', #49, 2.499999999999998668 ) ;
#142 = DIRECTION ( 'NONE',  ( 0.000000000000000000, 0.000000000000000000, -1.000000000000000000 ) ) ;
#143 = ORIENTED_EDGE ( 'NONE', *, *, #16, .T. ) ;
#144 = ADVANCED_FACE ( 'NONE', ( #51 ), #140, .F. ) ;
#145 = ADVANCED_FACE ( 'NONE', ( #136 ), #152, .T. ) ;
#146 = PERSON_AND_ORGANIZATION ( #84, #163 ) ;
#147 = CC_DESIGN_DATE_AND_TIME_ASSIGNMENT ( #42, #126, ( #40 ) ) ;
#148 = CALENDAR_DATE ( 2021, 14, 6 ) ;
#149 = APPROVAL_STATUS ( 'not_yet_approved' ) ;
#150 = LOCAL_TIME ( 11, 20, 4.000000000000000000, #97 ) ;
#151 = PERSON_AND_ORGANIZATION_ROLE ( 'creator' ) ;
#152 = PLANE ( 'NONE',  #38 ) ;
#153 = CYLINDRICAL_SURFACE ( 'NONE', #115, 2.499999999999998668 ) ;
#154 = AXIS2_PLACEMENT_3D ( 'NONE', #113, #100, #166 ) ;
#155 = DIRECTION ( 'NONE',  ( 1.000000000000000000, 0.000000000000000000, 0.000000000000000000 ) ) ;
#156 = LOCAL_TIME ( 11, 20, 4.000000000000000000, #133 ) ;
#157 = APPROVAL_DATE_TIME ( #99, #106 ) ;
#158 = EDGE_CURVE ( 'NONE', #1, #6, #12, .T. ) ;
#159 = EDGE_LOOP ( 'NONE', ( #112, #110 ) ) ;
#160 = ADVANCED_FACE ( 'NONE', ( #43 ), #141, .T. ) ;
#161 = APPROVAL_DATE_TIME ( #53, #108 ) ;
#162 = VERTEX_POINT ( 'NONE', #46 ) ;
#163 = ORGANIZATION ( 'UNSPECIFIED', 'UNSPECIFIED', '' ) ;
#164 = APPROVAL_DATE_TIME ( #120, #19 ) ;
#165 = CARTESIAN_POINT ( 'NONE',  ( 0.5000000000000000000, 3.061616997868381662E-16, -2.499999999999998668 ) ) ;
#166 = DIRECTION ( 'NONE',  ( 0.000000000000000000, 0.000000000000000000, -1.000000000000000000 ) ) ;
#167 = APPROVAL_ROLE ( '' ) ;
#168 = AXIS2_PLACEMENT_3D ( 'NONE', #175, #32, #129 ) ;
#169 = ORIENTED_EDGE ( 'NONE', *, *, #158, .T. ) ;
#170 =( NAMED_UNIT ( * ) SI_UNIT ( $, .STERADIAN. ) SOLID_ANGLE_UNIT ( ) );
#171 = APPROVAL_PERSON_ORGANIZATION ( #127, #106, #135 ) ;
#172 = AXIS2_PLACEMENT_3D ( 'NONE', #76, #155, #142 ) ;
#173 = CARTESIAN_POINT ( 'NONE',  ( 0.5000000000000000000, 0.000000000000000000, 2.499999999999998668 ) ) ;
#174 = DIRECTION ( 'NONE',  ( 0.000000000000000000, 0.000000000000000000, -1.000000000000000000 ) ) ;
#175 = CARTESIAN_POINT ( 'NONE',  ( -0.5000000000000000000, 0.000000000000000000, 0.000000000000000000 ) ) ;
ENDSEC;
END-ISO-10303-21;
