ISO-10303-21;
HEADER;
FILE_DESCRIPTION (( 'STEP AP203' ),
    '1' );
FILE_NAME ('Web Model 39232_39263.step',
    '2018-07-25T17:07:35',
    ( '' ),
    ( '' ),
    'SwSTEP 2.0',
    'SolidWorks 2016',
    '' );
FILE_SCHEMA (( 'CONFIG_CONTROL_DESIGN' ));
ENDSEC;

DATA;
#1 = DIRECTION ( 'NONE',  ( 1.000000000000000000, 0.0000000000000000000, 0.0000000000000000000 ) ) ;
#2 = AXIS2_PLACEMENT_3D ( 'NONE', #29, #120, #56 ) ;
#3 = LOCAL_TIME ( 13, 7, 35.00000000000000000, #41 ) ;
#4 = DIRECTION ( 'NONE',  ( 1.000000000000000000, 0.0000000000000000000, -0.0000000000000000000 ) ) ;
#5 = CARTESIAN_POINT ( 'NONE',  ( -6.349999999999999600, 0.0000000000000000000, 1.600000000000000100 ) ) ;
#6 = DESIGN_CONTEXT ( 'detailed design', #155, 'design' ) ;
#7 = PERSON_AND_ORGANIZATION ( #45, #86 ) ;
#8 = LINE ( 'NONE', #5, #78 ) ;
#9 = APPROVAL_STATUS ( 'not_yet_approved' ) ;
#10 = PERSON_AND_ORGANIZATION_ROLE ( 'design_supplier' ) ;
#11 = PERSON_AND_ORGANIZATION ( #45, #86 ) ;
#12 = PRODUCT_DEFINITION_SHAPE ( 'NONE', 'NONE',  #71 ) ;
#13 = FACE_OUTER_BOUND ( 'NONE', #130, .T. ) ;
#14 = CARTESIAN_POINT ( 'NONE',  ( 0.0000000000000000000, 0.0000000000000000000, 1.600000000000000100 ) ) ;
#15 = ORIENTED_EDGE ( 'NONE', *, *, #118, .T. ) ;
#16 = CC_DESIGN_SECURITY_CLASSIFICATION ( #160, ( #85 ) ) ;
#17 = DIRECTION ( 'NONE',  ( -0.0000000000000000000, -0.0000000000000000000, -1.000000000000000000 ) ) ;
#18 = PRODUCT ( 'Web Model 39232_39263', 'Web Model 39232_39263', '', ( #97 ) ) ;
#19 = DIRECTION ( 'NONE',  ( 1.000000000000000000, 0.0000000000000000000, 0.0000000000000000000 ) ) ;
#20 = CARTESIAN_POINT ( 'NONE',  ( 0.0000000000000000000, 0.0000000000000000000, 1.600000000000000100 ) ) ;
#21 = APPLICATION_CONTEXT ( 'configuration controlled 3d designs of mechanical parts and assemblies' ) ;
#22 = APPROVAL_ROLE ( '' ) ;
#23 = COORDINATED_UNIVERSAL_TIME_OFFSET ( 5, 0, .BEHIND. ) ;
#24 = APPROVAL_ROLE ( '' ) ;
#25 = APPLICATION_PROTOCOL_DEFINITION ( 'international standard', 'config_control_design', 1994, #155 ) ;
#26 = CIRCLE ( 'NONE', #77, 6.349999999999999600 ) ;
#27 = ORIENTED_EDGE ( 'NONE', *, *, #168, .F. ) ;
#28 = CARTESIAN_POINT ( 'NONE',  ( 0.0000000000000000000, 0.0000000000000000000, 1.600000000000000100 ) ) ;
#29 = CARTESIAN_POINT ( 'NONE',  ( 0.0000000000000000000, 0.0000000000000000000, -1.600000000000000100 ) ) ;
#30 = DIRECTION ( 'NONE',  ( 0.0000000000000000000, 0.0000000000000000000, 1.000000000000000000 ) ) ;
#31 = LOCAL_TIME ( 13, 7, 35.00000000000000000, #43 ) ;
#32 = DIRECTION ( 'NONE',  ( 0.0000000000000000000, 0.0000000000000000000, 1.000000000000000000 ) ) ;
#33 = APPLICATION_PROTOCOL_DEFINITION ( 'international standard', 'config_control_design', 1994, #21 ) ;
#34 = CIRCLE ( 'NONE', #107, 6.349999999999999600 ) ;
#35 = ORIENTED_EDGE ( 'NONE', *, *, #118, .F. ) ;
#36 = PRODUCT_RELATED_PRODUCT_CATEGORY ( 'detail', '', ( #18 ) ) ;
#37 = CYLINDRICAL_SURFACE ( 'NONE', #39, 6.349999999999999600 ) ;
#38 = APPROVAL_PERSON_ORGANIZATION ( #106, #121, #24 ) ;
#39 = AXIS2_PLACEMENT_3D ( 'NONE', #28, #48, #158 ) ;
#40 = ADVANCED_BREP_SHAPE_REPRESENTATION ( 'Web Model 39232_39263', ( #108, #83 ), #128 ) ;
#41 = COORDINATED_UNIVERSAL_TIME_OFFSET ( 5, 0, .BEHIND. ) ;
#42 = SECURITY_CLASSIFICATION_LEVEL ( 'unclassified' ) ;
#43 = COORDINATED_UNIVERSAL_TIME_OFFSET ( 5, 0, .BEHIND. ) ;
#44 = FACE_OUTER_BOUND ( 'NONE', #154, .T. ) ;
#45 = PERSON ( 'UNSPECIFIED', 'UNSPECIFIED', 'UNSPECIFIED', ('UNSPECIFIED'), ('UNSPECIFIED'), ('UNSPECIFIED') ) ;
#46 = PERSON_AND_ORGANIZATION ( #45, #86 ) ;
#47 = ORIENTED_EDGE ( 'NONE', *, *, #168, .T. ) ;
#48 = DIRECTION ( 'NONE',  ( -0.0000000000000000000, -0.0000000000000000000, -1.000000000000000000 ) ) ;
#49 = DIRECTION ( 'NONE',  ( -0.0000000000000000000, -0.0000000000000000000, -1.000000000000000000 ) ) ;
#50 = APPROVAL_PERSON_ORGANIZATION ( #92, #140, #22 ) ;
#51 = CARTESIAN_POINT ( 'NONE',  ( 0.0000000000000000000, 0.0000000000000000000, 0.0000000000000000000 ) ) ;
#52 = CIRCLE ( 'NONE', #111, 6.349999999999999600 ) ;
#53 = COORDINATED_UNIVERSAL_TIME_OFFSET ( 5, 0, .BEHIND. ) ;
#54 = EDGE_CURVE ( 'NONE', #64, #127, #34, .T. ) ;
#55 = DATE_AND_TIME ( #79, #156 ) ;
#56 = DIRECTION ( 'NONE',  ( 1.000000000000000000, 0.0000000000000000000, -0.0000000000000000000 ) ) ;
#57 = CARTESIAN_POINT ( 'NONE',  ( -6.349999999999999600, 0.0000000000000000000, 1.600000000000000100 ) ) ;
#58 = CARTESIAN_POINT ( 'NONE',  ( 0.0000000000000000000, 0.0000000000000000000, 1.600000000000000100 ) ) ;
#59 = EDGE_CURVE ( 'NONE', #127, #64, #26, .T. ) ;
#60 = PERSON_AND_ORGANIZATION ( #45, #86 ) ;
#61 = ADVANCED_FACE ( 'NONE', ( #44 ), #143, .T. ) ;
#62 = PERSON_AND_ORGANIZATION_ROLE ( 'creator' ) ;
#63 = PERSON_AND_ORGANIZATION_ROLE ( 'classification_officer' ) ;
#64 = VERTEX_POINT ( 'NONE', #89 ) ;
#65 = ORIENTED_EDGE ( 'NONE', *, *, #68, .T. ) ;
#66 = UNCERTAINTY_MEASURE_WITH_UNIT (LENGTH_MEASURE( 1.000000000000000100E-005 ), #136, 'distance_accuracy_value', 'NONE');
#67 = CC_DESIGN_APPROVAL ( #167, ( #85 ) ) ;
#68 = EDGE_CURVE ( 'NONE', #174, #64, #164, .T. ) ;
#69 =( NAMED_UNIT ( * ) SI_UNIT ( $, .STERADIAN. ) SOLID_ANGLE_UNIT ( ) );
#70 = AXIS2_PLACEMENT_3D ( 'NONE', #58, #147, #157 ) ;
#71 = PRODUCT_DEFINITION ( 'UNKNOWN', '', #85, #6 ) ;
#72 = ORIENTED_EDGE ( 'NONE', *, *, #96, .F. ) ;
#73 = DATE_TIME_ROLE ( 'classification_date' ) ;
#74 = APPROVAL_DATE_TIME ( #55, #121 ) ;
#75 = CC_DESIGN_PERSON_AND_ORGANIZATION_ASSIGNMENT ( #144, #62, ( #85 ) ) ;
#76 = DATE_TIME_ROLE ( 'creation_date' ) ;
#77 = AXIS2_PLACEMENT_3D ( 'NONE', #104, #133, #1 ) ;
#78 = VECTOR ( 'NONE', #148, 1000.000000000000000 ) ;
#79 = CALENDAR_DATE ( 2018, 25, 7 ) ;
#80 = DIRECTION ( 'NONE',  ( 0.0000000000000000000, 0.0000000000000000000, 1.000000000000000000 ) ) ;
#81 = DIRECTION ( 'NONE',  ( 1.000000000000000000, 0.0000000000000000000, 0.0000000000000000000 ) ) ;
#82 = CALENDAR_DATE ( 2018, 25, 7 ) ;
#83 = AXIS2_PLACEMENT_3D ( 'NONE', #51, #162, #81 ) ;
#84 = ORIENTED_EDGE ( 'NONE', *, *, #54, .F. ) ;
#85 = PRODUCT_DEFINITION_FORMATION_WITH_SPECIFIED_SOURCE ( 'ANY', '', #18, .NOT_KNOWN. ) ;
#86 = ORGANIZATION ( 'UNSPECIFIED', 'UNSPECIFIED', '' ) ;
#87 = PLANE ( 'NONE',  #2 ) ;
#88 = CARTESIAN_POINT ( 'NONE',  ( 6.349999999999999600, 7.776507174585692200E-016, 1.600000000000000100 ) ) ;
#89 = CARTESIAN_POINT ( 'NONE',  ( 6.349999999999999600, 7.776507174585692200E-016, -1.600000000000000100 ) ) ;
#90 =( NAMED_UNIT ( * ) PLANE_ANGLE_UNIT ( ) SI_UNIT ( $, .RADIAN. ) );
#91 = CYLINDRICAL_SURFACE ( 'NONE', #142, 6.349999999999999600 ) ;
#92 = PERSON_AND_ORGANIZATION ( #45, #86 ) ;
#93 = CALENDAR_DATE ( 2018, 25, 7 ) ;
#94 = APPROVAL_STATUS ( 'not_yet_approved' ) ;
#95 = ORIENTED_EDGE ( 'NONE', *, *, #96, .T. ) ;
#96 = EDGE_CURVE ( 'NONE', #174, #117, #52, .T. ) ;
#97 = MECHANICAL_CONTEXT ( 'NONE', #21, 'mechanical' ) ;
#98 = PERSON_AND_ORGANIZATION_ROLE ( 'design_owner' ) ;
#99 = LOCAL_TIME ( 13, 7, 35.00000000000000000, #53 ) ;
#100 = ORIENTED_EDGE ( 'NONE', *, *, #54, .T. ) ;
#101 = CC_DESIGN_PERSON_AND_ORGANIZATION_ASSIGNMENT ( #122, #152, ( #71 ) ) ;
#102 = DIRECTION ( 'NONE',  ( -1.000000000000000000, 0.0000000000000000000, 0.0000000000000000000 ) ) ;
#103 = CIRCLE ( 'NONE', #70, 6.349999999999999600 ) ;
#104 = CARTESIAN_POINT ( 'NONE',  ( 0.0000000000000000000, 0.0000000000000000000, -1.600000000000000100 ) ) ;
#105 = CC_DESIGN_DATE_AND_TIME_ASSIGNMENT ( #131, #73, ( #160 ) ) ;
#106 = PERSON_AND_ORGANIZATION ( #45, #86 ) ;
#107 = AXIS2_PLACEMENT_3D ( 'NONE', #159, #30, #19 ) ;
#108 = MANIFOLD_SOLID_BREP ( 'Boss-Extrude1', #112 ) ;
#109 = ADVANCED_FACE ( 'NONE', ( #146 ), #37, .T. ) ;
#110 = CC_DESIGN_PERSON_AND_ORGANIZATION_ASSIGNMENT ( #7, #63, ( #160 ) ) ;
#111 = AXIS2_PLACEMENT_3D ( 'NONE', #20, #32, #145 ) ;
#112 = CLOSED_SHELL ( 'NONE', ( #109, #113, #61, #123 ) ) ;
#113 = ADVANCED_FACE ( 'NONE', ( #13 ), #91, .T. ) ;
#114 = CC_DESIGN_DATE_AND_TIME_ASSIGNMENT ( #137, #76, ( #71 ) ) ;
#115 = APPROVAL_DATE_TIME ( #150, #167 ) ;
#116 = APPROVAL_STATUS ( 'not_yet_approved' ) ;
#117 = VERTEX_POINT ( 'NONE', #57 ) ;
#118 = EDGE_CURVE ( 'NONE', #117, #174, #103, .T. ) ;
#119 = CARTESIAN_POINT ( 'NONE',  ( -6.349999999999999600, 0.0000000000000000000, -1.600000000000000100 ) ) ;
#120 = DIRECTION ( 'NONE',  ( 0.0000000000000000000, 0.0000000000000000000, 1.000000000000000000 ) ) ;
#121 = APPROVAL ( #9, 'UNSPECIFIED' ) ;
#122 = PERSON_AND_ORGANIZATION ( #45, #86 ) ;
#123 = ADVANCED_FACE ( 'NONE', ( #170 ), #87, .F. ) ;
#124 = CC_DESIGN_APPROVAL ( #121, ( #71 ) ) ;
#125 = APPROVAL_ROLE ( '' ) ;
#126 = SHAPE_DEFINITION_REPRESENTATION ( #12, #40 ) ;
#127 = VERTEX_POINT ( 'NONE', #119 ) ;
#128 =( GEOMETRIC_REPRESENTATION_CONTEXT ( 3 ) GLOBAL_UNCERTAINTY_ASSIGNED_CONTEXT ( ( #66 ) ) GLOBAL_UNIT_ASSIGNED_CONTEXT ( ( #136, #90, #69 ) ) REPRESENTATION_CONTEXT ( 'NONE', 'WORKASPACE' ) );
#129 = VECTOR ( 'NONE', #49, 1000.000000000000000 ) ;
#130 = EDGE_LOOP ( 'NONE', ( #173, #35, #47, #171 ) ) ;
#131 = DATE_AND_TIME ( #139, #3 ) ;
#132 = EDGE_LOOP ( 'NONE', ( #72, #65, #100, #27 ) ) ;
#133 = DIRECTION ( 'NONE',  ( 0.0000000000000000000, 0.0000000000000000000, 1.000000000000000000 ) ) ;
#134 = CC_DESIGN_APPROVAL ( #140, ( #160 ) ) ;
#135 = CARTESIAN_POINT ( 'NONE',  ( 0.0000000000000000000, 0.0000000000000000000, 1.600000000000000100 ) ) ;
#136 =( LENGTH_UNIT ( ) NAMED_UNIT ( * ) SI_UNIT ( .MILLI., .METRE. ) );
#137 = DATE_AND_TIME ( #82, #141 ) ;
#138 = AXIS2_PLACEMENT_3D ( 'NONE', #135, #80, #4 ) ;
#139 = CALENDAR_DATE ( 2018, 25, 7 ) ;
#140 = APPROVAL ( #116, 'UNSPECIFIED' ) ;
#141 = LOCAL_TIME ( 13, 7, 35.00000000000000000, #175 ) ;
#142 = AXIS2_PLACEMENT_3D ( 'NONE', #14, #17, #102 ) ;
#143 = PLANE ( 'NONE',  #138 ) ;
#144 = PERSON_AND_ORGANIZATION ( #45, #86 ) ;
#145 = DIRECTION ( 'NONE',  ( 1.000000000000000000, 0.0000000000000000000, 0.0000000000000000000 ) ) ;
#146 = FACE_OUTER_BOUND ( 'NONE', #132, .T. ) ;
#147 = DIRECTION ( 'NONE',  ( 0.0000000000000000000, 0.0000000000000000000, 1.000000000000000000 ) ) ;
#148 = DIRECTION ( 'NONE',  ( -0.0000000000000000000, -0.0000000000000000000, -1.000000000000000000 ) ) ;
#149 = APPROVAL_DATE_TIME ( #169, #140 ) ;
#150 = DATE_AND_TIME ( #93, #99 ) ;
#151 = ORIENTED_EDGE ( 'NONE', *, *, #59, .F. ) ;
#152 = PERSON_AND_ORGANIZATION_ROLE ( 'creator' ) ;
#153 = APPROVAL_PERSON_ORGANIZATION ( #11, #167, #125 ) ;
#154 = EDGE_LOOP ( 'NONE', ( #15, #95 ) ) ;
#155 = APPLICATION_CONTEXT ( 'configuration controlled 3d designs of mechanical parts and assemblies' ) ;
#156 = LOCAL_TIME ( 13, 7, 35.00000000000000000, #23 ) ;
#157 = DIRECTION ( 'NONE',  ( 1.000000000000000000, 0.0000000000000000000, 0.0000000000000000000 ) ) ;
#158 = DIRECTION ( 'NONE',  ( -1.000000000000000000, 0.0000000000000000000, 0.0000000000000000000 ) ) ;
#159 = CARTESIAN_POINT ( 'NONE',  ( 0.0000000000000000000, 0.0000000000000000000, -1.600000000000000100 ) ) ;
#160 = SECURITY_CLASSIFICATION ( '', '', #42 ) ;
#161 = CARTESIAN_POINT ( 'NONE',  ( 6.349999999999999600, 7.776507174585692200E-016, 1.600000000000000100 ) ) ;
#162 = DIRECTION ( 'NONE',  ( 0.0000000000000000000, 0.0000000000000000000, 1.000000000000000000 ) ) ;
#163 = CC_DESIGN_PERSON_AND_ORGANIZATION_ASSIGNMENT ( #60, #98, ( #18 ) ) ;
#164 = LINE ( 'NONE', #88, #129 ) ;
#165 = EDGE_LOOP ( 'NONE', ( #151, #84 ) ) ;
#166 = CALENDAR_DATE ( 2018, 25, 7 ) ;
#167 = APPROVAL ( #94, 'UNSPECIFIED' ) ;
#168 = EDGE_CURVE ( 'NONE', #117, #127, #8, .T. ) ;
#169 = DATE_AND_TIME ( #166, #31 ) ;
#170 = FACE_OUTER_BOUND ( 'NONE', #165, .T. ) ;
#171 = ORIENTED_EDGE ( 'NONE', *, *, #59, .T. ) ;
#172 = CC_DESIGN_PERSON_AND_ORGANIZATION_ASSIGNMENT ( #46, #10, ( #85 ) ) ;
#173 = ORIENTED_EDGE ( 'NONE', *, *, #68, .F. ) ;
#174 = VERTEX_POINT ( 'NONE', #161 ) ;
#175 = COORDINATED_UNIVERSAL_TIME_OFFSET ( 5, 0, .BEHIND. ) ;
ENDSEC;
END-ISO-10303-21;
