ISO-10303-21;
HEADER;
FILE_DESCRIPTION (( 'STEP AP203' ),
    '1' );
FILE_NAME ('47193_68489.step',
    '2018-01-22T13:12:34',
    ( '' ),
    ( '' ),
    'SwSTEP 2.0',
    'SolidWorks 2016',
    '' );
FILE_SCHEMA (( 'CONFIG_CONTROL_DESIGN' ));
ENDSEC;

DATA;
#1 = DATE_AND_TIME ( #146, #103 ) ;
#2 = PERSON_AND_ORGANIZATION_ROLE ( 'classification_officer' ) ;
#3 = CLOSED_SHELL ( 'NONE', ( #142, #29, #16, #83 ) ) ;
#4 = APPROVAL ( #170, 'UNSPECIFIED' ) ;
#5 = PLANE ( 'NONE',  #106 ) ;
#6 = CARTESIAN_POINT ( 'NONE',  ( 0.0000000000000000000, 0.0000000000000000000, 0.0000000000000000000 ) ) ;
#7 = ORIENTED_EDGE ( 'NONE', *, *, #95, .F. ) ;
#8 = CARTESIAN_POINT ( 'NONE',  ( 0.0000000000000000000, 0.0000000000000000000, 0.0000000000000000000 ) ) ;
#9 = DATE_AND_TIME ( #43, #81 ) ;
#10 = ORIENTED_EDGE ( 'NONE', *, *, #12, .F. ) ;
#11 = PERSON_AND_ORGANIZATION ( #60, #155 ) ;
#12 = EDGE_CURVE ( 'NONE', #40, #158, #37, .T. ) ;
#13 = CC_DESIGN_DATE_AND_TIME_ASSIGNMENT ( #33, #54, ( #156 ) ) ;
#14 = DIRECTION ( 'NONE',  ( 1.000000000000000000, 0.0000000000000000000, 0.0000000000000000000 ) ) ;
#15 = APPROVAL_STATUS ( 'not_yet_approved' ) ;
#16 = ADVANCED_FACE ( 'NONE', ( #27 ), #85, .F. ) ;
#17 = COORDINATED_UNIVERSAL_TIME_OFFSET ( 5, 0, .BEHIND. ) ;
#18 = LINE ( 'NONE', #167, #89 ) ;
#19 = DIRECTION ( 'NONE',  ( 0.0000000000000000000, 0.0000000000000000000, 1.000000000000000000 ) ) ;
#20 = DIRECTION ( 'NONE',  ( 1.000000000000000000, 0.0000000000000000000, -0.0000000000000000000 ) ) ;
#21 = DIRECTION ( 'NONE',  ( 1.000000000000000000, 0.0000000000000000000, 0.0000000000000000000 ) ) ;
#22 = APPROVAL_ROLE ( '' ) ;
#23 = LOCAL_TIME ( 8, 12, 34.00000000000000000, #59 ) ;
#24 = PRODUCT_DEFINITION_FORMATION_WITH_SPECIFIED_SOURCE ( 'ANY', '', #72, .NOT_KNOWN. ) ;
#25 = MANIFOLD_SOLID_BREP ( 'Boss-Extrude1', #3 ) ;
#26 = ORIENTED_EDGE ( 'NONE', *, *, #161, .T. ) ;
#27 = FACE_OUTER_BOUND ( 'NONE', #107, .T. ) ;
#28 = APPROVAL_PERSON_ORGANIZATION ( #137, #4, #22 ) ;
#29 = ADVANCED_FACE ( 'NONE', ( #175 ), #169, .T. ) ;
#30 = APPROVAL_ROLE ( '' ) ;
#31 = DIRECTION ( 'NONE',  ( 1.000000000000000000, 0.0000000000000000000, 0.0000000000000000000 ) ) ;
#32 = CC_DESIGN_APPROVAL ( #4, ( #24 ) ) ;
#33 = DATE_AND_TIME ( #173, #65 ) ;
#34 = DIRECTION ( 'NONE',  ( 0.0000000000000000000, 0.0000000000000000000, 1.000000000000000000 ) ) ;
#35 = CARTESIAN_POINT ( 'NONE',  ( 0.0000000000000000000, 0.0000000000000000000, 0.0000000000000000000 ) ) ;
#36 = CARTESIAN_POINT ( 'NONE',  ( 6.249999999999998200, 0.0000000000000000000, 0.0000000000000000000 ) ) ;
#37 = CIRCLE ( 'NONE', #45, 6.249999999999998200 ) ;
#38 = AXIS2_PLACEMENT_3D ( 'NONE', #77, #112, #147 ) ;
#39 = APPROVAL_DATE_TIME ( #1, #4 ) ;
#40 = VERTEX_POINT ( 'NONE', #134 ) ;
#41 = CC_DESIGN_PERSON_AND_ORGANIZATION_ASSIGNMENT ( #73, #70, ( #24 ) ) ;
#42 =( GEOMETRIC_REPRESENTATION_CONTEXT ( 3 ) GLOBAL_UNCERTAINTY_ASSIGNED_CONTEXT ( ( #92 ) ) GLOBAL_UNIT_ASSIGNED_CONTEXT ( ( #144, #154, #127 ) ) REPRESENTATION_CONTEXT ( 'NONE', 'WORKASPACE' ) );
#43 = CALENDAR_DATE ( 2018, 22, 1 ) ;
#44 = EDGE_LOOP ( 'NONE', ( #26, #149, #76, #53 ) ) ;
#45 = AXIS2_PLACEMENT_3D ( 'NONE', #113, #34, #31 ) ;
#46 = APPLICATION_CONTEXT ( 'configuration controlled 3d designs of mechanical parts and assemblies' ) ;
#47 = AXIS2_PLACEMENT_3D ( 'NONE', #35, #133, #157 ) ;
#48 = CARTESIAN_POINT ( 'NONE',  ( 0.0000000000000000000, 0.0000000000000000000, -2.000000000000000000 ) ) ;
#49 = DIRECTION ( 'NONE',  ( 1.000000000000000000, 0.0000000000000000000, -0.0000000000000000000 ) ) ;
#50 = DIRECTION ( 'NONE',  ( 1.000000000000000000, 0.0000000000000000000, 0.0000000000000000000 ) ) ;
#51 = PRODUCT_DEFINITION_SHAPE ( 'NONE', 'NONE',  #156 ) ;
#52 = APPROVAL_DATE_TIME ( #84, #114 ) ;
#53 = ORIENTED_EDGE ( 'NONE', *, *, #121, .F. ) ;
#54 = DATE_TIME_ROLE ( 'creation_date' ) ;
#55 = PERSON_AND_ORGANIZATION_ROLE ( 'design_supplier' ) ;
#56 = APPROVAL_PERSON_ORGANIZATION ( #88, #114, #110 ) ;
#57 = FACE_OUTER_BOUND ( 'NONE', #166, .T. ) ;
#58 = DIRECTION ( 'NONE',  ( 0.0000000000000000000, 0.0000000000000000000, 1.000000000000000000 ) ) ;
#59 = COORDINATED_UNIVERSAL_TIME_OFFSET ( 5, 0, .BEHIND. ) ;
#60 = PERSON ( 'UNSPECIFIED', 'UNSPECIFIED', 'UNSPECIFIED', ('UNSPECIFIED'), ('UNSPECIFIED'), ('UNSPECIFIED') ) ;
#61 = DIRECTION ( 'NONE',  ( 0.0000000000000000000, 0.0000000000000000000, 1.000000000000000000 ) ) ;
#62 = CIRCLE ( 'NONE', #131, 6.249999999999998200 ) ;
#63 = CC_DESIGN_PERSON_AND_ORGANIZATION_ASSIGNMENT ( #108, #55, ( #24 ) ) ;
#64 = VERTEX_POINT ( 'NONE', #116 ) ;
#65 = LOCAL_TIME ( 8, 12, 34.00000000000000000, #140 ) ;
#66 = PERSON_AND_ORGANIZATION_ROLE ( 'creator' ) ;
#67 = EDGE_LOOP ( 'NONE', ( #7, #139, #148, #152 ) ) ;
#68 = COORDINATED_UNIVERSAL_TIME_OFFSET ( 5, 0, .BEHIND. ) ;
#69 = SECURITY_CLASSIFICATION ( '', '', #74 ) ;
#70 = PERSON_AND_ORGANIZATION_ROLE ( 'creator' ) ;
#71 = VERTEX_POINT ( 'NONE', #36 ) ;
#72 = PRODUCT ( '47193_68489', '47193_68489', '', ( #120 ) ) ;
#73 = PERSON_AND_ORGANIZATION ( #60, #155 ) ;
#74 = SECURITY_CLASSIFICATION_LEVEL ( 'unclassified' ) ;
#75 = CARTESIAN_POINT ( 'NONE',  ( 6.249999999999998200, 0.0000000000000000000, -2.000000000000000000 ) ) ;
#76 = ORIENTED_EDGE ( 'NONE', *, *, #143, .F. ) ;
#77 = CARTESIAN_POINT ( 'NONE',  ( 0.0000000000000000000, 0.0000000000000000000, -2.000000000000000000 ) ) ;
#78 = APPLICATION_CONTEXT ( 'configuration controlled 3d designs of mechanical parts and assemblies' ) ;
#79 = ADVANCED_BREP_SHAPE_REPRESENTATION ( '47193_68489', ( #25, #118 ), #42 ) ;
#80 = CC_DESIGN_PERSON_AND_ORGANIZATION_ASSIGNMENT ( #150, #2, ( #69 ) ) ;
#81 = LOCAL_TIME ( 8, 12, 34.00000000000000000, #117 ) ;
#82 = CIRCLE ( 'NONE', #47, 6.249999999999998200 ) ;
#83 = ADVANCED_FACE ( 'NONE', ( #57 ), #5, .T. ) ;
#84 = DATE_AND_TIME ( #122, #160 ) ;
#85 = PLANE ( 'NONE',  #123 ) ;
#86 = CARTESIAN_POINT ( 'NONE',  ( 6.249999999999998200, 0.0000000000000000000, -2.000000000000000000 ) ) ;
#87 = DIRECTION ( 'NONE',  ( 0.0000000000000000000, 0.0000000000000000000, 1.000000000000000000 ) ) ;
#88 = PERSON_AND_ORGANIZATION ( #60, #155 ) ;
#89 = VECTOR ( 'NONE', #19, 1000.000000000000000 ) ;
#90 = CIRCLE ( 'NONE', #102, 6.249999999999998200 ) ;
#91 = AXIS2_PLACEMENT_3D ( 'NONE', #48, #115, #50 ) ;
#92 = UNCERTAINTY_MEASURE_WITH_UNIT (LENGTH_MEASURE( 1.000000000000000100E-005 ), #144, 'distance_accuracy_value', 'NONE');
#93 = CYLINDRICAL_SURFACE ( 'NONE', #91, 6.249999999999998200 ) ;
#94 = PERSON_AND_ORGANIZATION ( #60, #155 ) ;
#95 = EDGE_CURVE ( 'NONE', #40, #64, #18, .T. ) ;
#96 = DATE_TIME_ROLE ( 'classification_date' ) ;
#97 = ORIENTED_EDGE ( 'NONE', *, *, #143, .T. ) ;
#98 = EDGE_CURVE ( 'NONE', #64, #71, #82, .T. ) ;
#99 = PERSON_AND_ORGANIZATION ( #60, #155 ) ;
#100 = DIRECTION ( 'NONE',  ( 0.0000000000000000000, 0.0000000000000000000, 1.000000000000000000 ) ) ;
#101 = CARTESIAN_POINT ( 'NONE',  ( 0.0000000000000000000, 0.0000000000000000000, 0.0000000000000000000 ) ) ;
#102 = AXIS2_PLACEMENT_3D ( 'NONE', #165, #58, #141 ) ;
#103 = LOCAL_TIME ( 8, 12, 34.00000000000000000, #68 ) ;
#104 = PERSON_AND_ORGANIZATION_ROLE ( 'design_owner' ) ;
#105 = CC_DESIGN_DATE_AND_TIME_ASSIGNMENT ( #126, #96, ( #69 ) ) ;
#106 = AXIS2_PLACEMENT_3D ( 'NONE', #6, #129, #49 ) ;
#107 = EDGE_LOOP ( 'NONE', ( #111, #10 ) ) ;
#108 = PERSON_AND_ORGANIZATION ( #60, #155 ) ;
#109 = FACE_OUTER_BOUND ( 'NONE', #44, .T. ) ;
#110 = APPROVAL_ROLE ( '' ) ;
#111 = ORIENTED_EDGE ( 'NONE', *, *, #161, .F. ) ;
#112 = DIRECTION ( 'NONE',  ( 0.0000000000000000000, 0.0000000000000000000, 1.000000000000000000 ) ) ;
#113 = CARTESIAN_POINT ( 'NONE',  ( 0.0000000000000000000, 0.0000000000000000000, -2.000000000000000000 ) ) ;
#114 = APPROVAL ( #15, 'UNSPECIFIED' ) ;
#115 = DIRECTION ( 'NONE',  ( 0.0000000000000000000, 0.0000000000000000000, 1.000000000000000000 ) ) ;
#116 = CARTESIAN_POINT ( 'NONE',  ( -6.249999999999998200, 7.654042494670955600E-016, 0.0000000000000000000 ) ) ;
#117 = COORDINATED_UNIVERSAL_TIME_OFFSET ( 5, 0, .BEHIND. ) ;
#118 = AXIS2_PLACEMENT_3D ( 'NONE', #101, #135, #14 ) ;
#119 = PRODUCT_RELATED_PRODUCT_CATEGORY ( 'detail', '', ( #72 ) ) ;
#120 = MECHANICAL_CONTEXT ( 'NONE', #46, 'mechanical' ) ;
#121 = EDGE_CURVE ( 'NONE', #158, #71, #130, .T. ) ;
#122 = CALENDAR_DATE ( 2018, 22, 1 ) ;
#123 = AXIS2_PLACEMENT_3D ( 'NONE', #132, #61, #20 ) ;
#124 = APPLICATION_PROTOCOL_DEFINITION ( 'international standard', 'config_control_design', 1994, #46 ) ;
#125 = CC_DESIGN_APPROVAL ( #114, ( #69 ) ) ;
#126 = DATE_AND_TIME ( #162, #23 ) ;
#127 =( NAMED_UNIT ( * ) SI_UNIT ( $, .STERADIAN. ) SOLID_ANGLE_UNIT ( ) );
#128 = CC_DESIGN_PERSON_AND_ORGANIZATION_ASSIGNMENT ( #94, #104, ( #72 ) ) ;
#129 = DIRECTION ( 'NONE',  ( 0.0000000000000000000, 0.0000000000000000000, 1.000000000000000000 ) ) ;
#130 = LINE ( 'NONE', #86, #164 ) ;
#131 = AXIS2_PLACEMENT_3D ( 'NONE', #8, #87, #21 ) ;
#132 = CARTESIAN_POINT ( 'NONE',  ( 0.0000000000000000000, 0.0000000000000000000, -2.000000000000000000 ) ) ;
#133 = DIRECTION ( 'NONE',  ( 0.0000000000000000000, 0.0000000000000000000, 1.000000000000000000 ) ) ;
#134 = CARTESIAN_POINT ( 'NONE',  ( -6.249999999999998200, 7.654042494670955600E-016, -2.000000000000000000 ) ) ;
#135 = DIRECTION ( 'NONE',  ( 0.0000000000000000000, 0.0000000000000000000, 1.000000000000000000 ) ) ;
#136 = SHAPE_DEFINITION_REPRESENTATION ( #51, #79 ) ;
#137 = PERSON_AND_ORGANIZATION ( #60, #155 ) ;
#138 = CC_DESIGN_SECURITY_CLASSIFICATION ( #69, ( #24 ) ) ;
#139 = ORIENTED_EDGE ( 'NONE', *, *, #12, .T. ) ;
#140 = COORDINATED_UNIVERSAL_TIME_OFFSET ( 5, 0, .BEHIND. ) ;
#141 = DIRECTION ( 'NONE',  ( 1.000000000000000000, 0.0000000000000000000, 0.0000000000000000000 ) ) ;
#142 = ADVANCED_FACE ( 'NONE', ( #109 ), #93, .T. ) ;
#143 = EDGE_CURVE ( 'NONE', #71, #64, #62, .T. ) ;
#144 =( LENGTH_UNIT ( ) NAMED_UNIT ( * ) SI_UNIT ( .MILLI., .METRE. ) );
#145 = APPROVAL_STATUS ( 'not_yet_approved' ) ;
#146 = CALENDAR_DATE ( 2018, 22, 1 ) ;
#147 = DIRECTION ( 'NONE',  ( 1.000000000000000000, 0.0000000000000000000, 0.0000000000000000000 ) ) ;
#148 = ORIENTED_EDGE ( 'NONE', *, *, #121, .T. ) ;
#149 = ORIENTED_EDGE ( 'NONE', *, *, #95, .T. ) ;
#150 = PERSON_AND_ORGANIZATION ( #60, #155 ) ;
#151 = ORIENTED_EDGE ( 'NONE', *, *, #98, .T. ) ;
#152 = ORIENTED_EDGE ( 'NONE', *, *, #98, .F. ) ;
#153 = APPROVAL_PERSON_ORGANIZATION ( #11, #163, #30 ) ;
#154 =( NAMED_UNIT ( * ) PLANE_ANGLE_UNIT ( ) SI_UNIT ( $, .RADIAN. ) );
#155 = ORGANIZATION ( 'UNSPECIFIED', 'UNSPECIFIED', '' ) ;
#156 = PRODUCT_DEFINITION ( 'UNKNOWN', '', #24, #174 ) ;
#157 = DIRECTION ( 'NONE',  ( 1.000000000000000000, 0.0000000000000000000, 0.0000000000000000000 ) ) ;
#158 = VERTEX_POINT ( 'NONE', #75 ) ;
#159 = CC_DESIGN_APPROVAL ( #163, ( #156 ) ) ;
#160 = LOCAL_TIME ( 8, 12, 34.00000000000000000, #17 ) ;
#161 = EDGE_CURVE ( 'NONE', #158, #40, #90, .T. ) ;
#162 = CALENDAR_DATE ( 2018, 22, 1 ) ;
#163 = APPROVAL ( #145, 'UNSPECIFIED' ) ;
#164 = VECTOR ( 'NONE', #100, 1000.000000000000000 ) ;
#165 = CARTESIAN_POINT ( 'NONE',  ( 0.0000000000000000000, 0.0000000000000000000, -2.000000000000000000 ) ) ;
#166 = EDGE_LOOP ( 'NONE', ( #97, #151 ) ) ;
#167 = CARTESIAN_POINT ( 'NONE',  ( -6.249999999999998200, 7.654042494670955600E-016, -2.000000000000000000 ) ) ;
#168 = APPROVAL_DATE_TIME ( #9, #163 ) ;
#169 = CYLINDRICAL_SURFACE ( 'NONE', #38, 6.249999999999998200 ) ;
#170 = APPROVAL_STATUS ( 'not_yet_approved' ) ;
#171 = APPLICATION_PROTOCOL_DEFINITION ( 'international standard', 'config_control_design', 1994, #78 ) ;
#172 = CC_DESIGN_PERSON_AND_ORGANIZATION_ASSIGNMENT ( #99, #66, ( #156 ) ) ;
#173 = CALENDAR_DATE ( 2018, 22, 1 ) ;
#174 = DESIGN_CONTEXT ( 'detailed design', #78, 'design' ) ;
#175 = FACE_OUTER_BOUND ( 'NONE', #67, .T. ) ;
ENDSEC;
END-ISO-10303-21;
