ISO-10303-21;
HEADER;
FILE_DESCRIPTION (( 'STEP AP203' ),
    '1' );
FILE_NAME ('Web Model 45308_39294.step',
    '2019-01-07T15:46:37',
    ( '' ),
    ( '' ),
    'SwSTEP 2.0',
    'SolidWorks 2016',
    '' );
FILE_SCHEMA (( 'CONFIG_CONTROL_DESIGN' ));
ENDSEC;

DATA;
#1 = DIRECTION ( 'NONE',  ( 1.000000000000000000, 0.0000000000000000000, 0.0000000000000000000 ) ) ;
#2 = ORIENTED_EDGE ( 'NONE', *, *, #113, .F. ) ;
#3 = APPLICATION_CONTEXT ( 'configuration controlled 3d designs of mechanical parts and assemblies' ) ;
#4 = AXIS2_PLACEMENT_3D ( 'NONE', #49, #142, #52 ) ;
#5 = DATE_TIME_ROLE ( 'classification_date' ) ;
#6 = APPROVAL_STATUS ( 'not_yet_approved' ) ;
#7 = APPROVAL_DATE_TIME ( #30, #91 ) ;
#8 = CIRCLE ( 'NONE', #83, 5.000000000000000000 ) ;
#9 = APPROVAL_STATUS ( 'not_yet_approved' ) ;
#10 = ORIENTED_EDGE ( 'NONE', *, *, #106, .F. ) ;
#11 = PERSON ( 'UNSPECIFIED', 'UNSPECIFIED', 'UNSPECIFIED', ('UNSPECIFIED'), ('UNSPECIFIED'), ('UNSPECIFIED') ) ;
#12 = DATE_AND_TIME ( #20, #157 ) ;
#13 = VECTOR ( 'NONE', #161, 1000.000000000000000 ) ;
#14 = PLANE ( 'NONE',  #139 ) ;
#15 = UNCERTAINTY_MEASURE_WITH_UNIT (LENGTH_MEASURE( 1.000000000000000100E-005 ), #67, 'distance_accuracy_value', 'NONE');
#16 = APPROVAL_DATE_TIME ( #50, #69 ) ;
#17 = ORIENTED_EDGE ( 'NONE', *, *, #87, .T. ) ;
#18 = PRODUCT_DEFINITION_FORMATION_WITH_SPECIFIED_SOURCE ( 'ANY', '', #51, .NOT_KNOWN. ) ;
#19 =( NAMED_UNIT ( * ) PLANE_ANGLE_UNIT ( ) SI_UNIT ( $, .RADIAN. ) );
#20 = CALENDAR_DATE ( 2019, 7, 1 ) ;
#21 =( GEOMETRIC_REPRESENTATION_CONTEXT ( 3 ) GLOBAL_UNCERTAINTY_ASSIGNED_CONTEXT ( ( #15 ) ) GLOBAL_UNIT_ASSIGNED_CONTEXT ( ( #67, #19, #79 ) ) REPRESENTATION_CONTEXT ( 'NONE', 'WORKASPACE' ) );
#22 = LOCAL_TIME ( 10, 46, 37.00000000000000000, #125 ) ;
#23 = CYLINDRICAL_SURFACE ( 'NONE', #4, 5.000000000000000000 ) ;
#24 = ADVANCED_BREP_SHAPE_REPRESENTATION ( 'Web Model 45308_39294', ( #46, #116 ), #21 ) ;
#25 = CC_DESIGN_PERSON_AND_ORGANIZATION_ASSIGNMENT ( #58, #170, ( #18 ) ) ;
#26 = LOCAL_TIME ( 10, 46, 37.00000000000000000, #123 ) ;
#27 = APPROVAL ( #6, 'UNSPECIFIED' ) ;
#28 = DIRECTION ( 'NONE',  ( 1.000000000000000000, 0.0000000000000000000, -0.0000000000000000000 ) ) ;
#29 = PERSON_AND_ORGANIZATION ( #11, #111 ) ;
#30 = DATE_AND_TIME ( #35, #26 ) ;
#31 = CC_DESIGN_DATE_AND_TIME_ASSIGNMENT ( #12, #169, ( #93 ) ) ;
#32 = EDGE_LOOP ( 'NONE', ( #40, #10, #17, #47 ) ) ;
#33 = CARTESIAN_POINT ( 'NONE',  ( 0.0000000000000000000, 0.0000000000000000000, 0.0000000000000000000 ) ) ;
#34 = DIRECTION ( 'NONE',  ( 1.000000000000000000, 0.0000000000000000000, 0.0000000000000000000 ) ) ;
#35 = CALENDAR_DATE ( 2019, 7, 1 ) ;
#36 = ORIENTED_EDGE ( 'NONE', *, *, #87, .F. ) ;
#37 = ADVANCED_FACE ( 'NONE', ( #60 ), #140, .T. ) ;
#38 = FACE_OUTER_BOUND ( 'NONE', #45, .T. ) ;
#39 = COORDINATED_UNIVERSAL_TIME_OFFSET ( 5, 0, .BEHIND. ) ;
#40 = ORIENTED_EDGE ( 'NONE', *, *, #174, .F. ) ;
#41 = APPROVAL_PERSON_ORGANIZATION ( #75, #27, #150 ) ;
#42 = MECHANICAL_CONTEXT ( 'NONE', #3, 'mechanical' ) ;
#43 = DIRECTION ( 'NONE',  ( 0.0000000000000000000, 0.0000000000000000000, 1.000000000000000000 ) ) ;
#44 = AXIS2_PLACEMENT_3D ( 'NONE', #96, #77, #118 ) ;
#45 = EDGE_LOOP ( 'NONE', ( #143, #148, #92, #36 ) ) ;
#46 = MANIFOLD_SOLID_BREP ( 'Boss-Extrude1', #78 ) ;
#47 = ORIENTED_EDGE ( 'NONE', *, *, #156, .T. ) ;
#48 = ADVANCED_FACE ( 'NONE', ( #38 ), #23, .T. ) ;
#49 = CARTESIAN_POINT ( 'NONE',  ( 0.0000000000000000000, 0.0000000000000000000, 0.5000000000000000000 ) ) ;
#50 = DATE_AND_TIME ( #117, #22 ) ;
#51 = PRODUCT ( 'Web Model 45308_39294', 'Web Model 45308_39294', '', ( #42 ) ) ;
#52 = DIRECTION ( 'NONE',  ( -1.000000000000000000, 0.0000000000000000000, 0.0000000000000000000 ) ) ;
#53 = CARTESIAN_POINT ( 'NONE',  ( 0.0000000000000000000, 0.0000000000000000000, -0.5000000000000000000 ) ) ;
#54 = DIRECTION ( 'NONE',  ( -1.000000000000000000, 0.0000000000000000000, 0.0000000000000000000 ) ) ;
#55 = DIRECTION ( 'NONE',  ( 1.000000000000000000, 0.0000000000000000000, -0.0000000000000000000 ) ) ;
#56 = CARTESIAN_POINT ( 'NONE',  ( 5.000000000000000000, 6.123233995736766300E-016, 0.5000000000000000000 ) ) ;
#57 = PERSON_AND_ORGANIZATION_ROLE ( 'classification_officer' ) ;
#58 = PERSON_AND_ORGANIZATION ( #11, #111 ) ;
#59 = APPROVAL_DATE_TIME ( #76, #27 ) ;
#60 = FACE_OUTER_BOUND ( 'NONE', #159, .T. ) ;
#61 = AXIS2_PLACEMENT_3D ( 'NONE', #164, #133, #34 ) ;
#62 = PRODUCT_DEFINITION_SHAPE ( 'NONE', 'NONE',  #93 ) ;
#63 = SECURITY_CLASSIFICATION ( '', '', #100 ) ;
#64 = CARTESIAN_POINT ( 'NONE',  ( 0.0000000000000000000, 0.0000000000000000000, 0.5000000000000000000 ) ) ;
#65 = VERTEX_POINT ( 'NONE', #127 ) ;
#66 = PERSON_AND_ORGANIZATION ( #11, #111 ) ;
#67 =( LENGTH_UNIT ( ) NAMED_UNIT ( * ) SI_UNIT ( .MILLI., .METRE. ) );
#68 = LINE ( 'NONE', #56, #101 ) ;
#69 = APPROVAL ( #9, 'UNSPECIFIED' ) ;
#70 = CC_DESIGN_PERSON_AND_ORGANIZATION_ASSIGNMENT ( #66, #151, ( #51 ) ) ;
#71 = APPLICATION_PROTOCOL_DEFINITION ( 'international standard', 'config_control_design', 1994, #154 ) ;
#72 = CALENDAR_DATE ( 2019, 7, 1 ) ;
#73 = ADVANCED_FACE ( 'NONE', ( #110 ), #14, .F. ) ;
#74 = CC_DESIGN_APPROVAL ( #27, ( #93 ) ) ;
#75 = PERSON_AND_ORGANIZATION ( #11, #111 ) ;
#76 = DATE_AND_TIME ( #72, #107 ) ;
#77 = DIRECTION ( 'NONE',  ( 0.0000000000000000000, 0.0000000000000000000, 1.000000000000000000 ) ) ;
#78 = CLOSED_SHELL ( 'NONE', ( #48, #112, #37, #73 ) ) ;
#79 =( NAMED_UNIT ( * ) SI_UNIT ( $, .STERADIAN. ) SOLID_ANGLE_UNIT ( ) );
#80 = CARTESIAN_POINT ( 'NONE',  ( -5.000000000000000000, 0.0000000000000000000, 0.5000000000000000000 ) ) ;
#81 = DIRECTION ( 'NONE',  ( 1.000000000000000000, 0.0000000000000000000, 0.0000000000000000000 ) ) ;
#82 = CARTESIAN_POINT ( 'NONE',  ( 0.0000000000000000000, 0.0000000000000000000, 0.5000000000000000000 ) ) ;
#83 = AXIS2_PLACEMENT_3D ( 'NONE', #53, #43, #1 ) ;
#84 = APPROVAL_ROLE ( '' ) ;
#85 = APPROVAL_PERSON_ORGANIZATION ( #128, #91, #168 ) ;
#86 = CIRCLE ( 'NONE', #149, 5.000000000000000000 ) ;
#87 = EDGE_CURVE ( 'NONE', #124, #163, #88, .T. ) ;
#88 = LINE ( 'NONE', #146, #13 ) ;
#89 = CC_DESIGN_PERSON_AND_ORGANIZATION_ASSIGNMENT ( #155, #57, ( #63 ) ) ;
#90 = COORDINATED_UNIVERSAL_TIME_OFFSET ( 5, 0, .BEHIND. ) ;
#91 = APPROVAL ( #98, 'UNSPECIFIED' ) ;
#92 = ORIENTED_EDGE ( 'NONE', *, *, #113, .T. ) ;
#93 = PRODUCT_DEFINITION ( 'UNKNOWN', '', #18, #153 ) ;
#94 = DIRECTION ( 'NONE',  ( -0.0000000000000000000, -0.0000000000000000000, -1.000000000000000000 ) ) ;
#95 = CARTESIAN_POINT ( 'NONE',  ( 0.0000000000000000000, 0.0000000000000000000, 0.5000000000000000000 ) ) ;
#96 = CARTESIAN_POINT ( 'NONE',  ( 0.0000000000000000000, 0.0000000000000000000, -0.5000000000000000000 ) ) ;
#97 = AXIS2_PLACEMENT_3D ( 'NONE', #95, #131, #54 ) ;
#98 = APPROVAL_STATUS ( 'not_yet_approved' ) ;
#99 = CC_DESIGN_APPROVAL ( #69, ( #18 ) ) ;
#100 = SECURITY_CLASSIFICATION_LEVEL ( 'unclassified' ) ;
#101 = VECTOR ( 'NONE', #94, 1000.000000000000000 ) ;
#102 = DIRECTION ( 'NONE',  ( 0.0000000000000000000, 0.0000000000000000000, 1.000000000000000000 ) ) ;
#103 = SHAPE_DEFINITION_REPRESENTATION ( #62, #24 ) ;
#104 = EDGE_CURVE ( 'NONE', #65, #124, #132, .T. ) ;
#105 = CC_DESIGN_DATE_AND_TIME_ASSIGNMENT ( #130, #5, ( #63 ) ) ;
#106 = EDGE_CURVE ( 'NONE', #124, #65, #86, .T. ) ;
#107 = LOCAL_TIME ( 10, 46, 37.00000000000000000, #90 ) ;
#108 = APPLICATION_PROTOCOL_DEFINITION ( 'international standard', 'config_control_design', 1994, #3 ) ;
#109 = DIRECTION ( 'NONE',  ( 0.0000000000000000000, 0.0000000000000000000, 1.000000000000000000 ) ) ;
#110 = FACE_OUTER_BOUND ( 'NONE', #173, .T. ) ;
#111 = ORGANIZATION ( 'UNSPECIFIED', 'UNSPECIFIED', '' ) ;
#112 = ADVANCED_FACE ( 'NONE', ( #175 ), #138, .T. ) ;
#113 = EDGE_CURVE ( 'NONE', #115, #163, #172, .T. ) ;
#114 = CC_DESIGN_APPROVAL ( #91, ( #63 ) ) ;
#115 = VERTEX_POINT ( 'NONE', #129 ) ;
#116 = AXIS2_PLACEMENT_3D ( 'NONE', #33, #119, #147 ) ;
#117 = CALENDAR_DATE ( 2019, 7, 1 ) ;
#118 = DIRECTION ( 'NONE',  ( 1.000000000000000000, 0.0000000000000000000, 0.0000000000000000000 ) ) ;
#119 = DIRECTION ( 'NONE',  ( 0.0000000000000000000, 0.0000000000000000000, 1.000000000000000000 ) ) ;
#120 = LOCAL_TIME ( 10, 46, 37.00000000000000000, #171 ) ;
#121 = ORIENTED_EDGE ( 'NONE', *, *, #104, .T. ) ;
#122 = AXIS2_PLACEMENT_3D ( 'NONE', #64, #102, #28 ) ;
#123 = COORDINATED_UNIVERSAL_TIME_OFFSET ( 5, 0, .BEHIND. ) ;
#124 = VERTEX_POINT ( 'NONE', #80 ) ;
#125 = COORDINATED_UNIVERSAL_TIME_OFFSET ( 5, 0, .BEHIND. ) ;
#126 = CC_DESIGN_SECURITY_CLASSIFICATION ( #63, ( #18 ) ) ;
#127 = CARTESIAN_POINT ( 'NONE',  ( 5.000000000000000000, 6.123233995736766300E-016, 0.5000000000000000000 ) ) ;
#128 = PERSON_AND_ORGANIZATION ( #11, #111 ) ;
#129 = CARTESIAN_POINT ( 'NONE',  ( 5.000000000000000000, 6.123233995736766300E-016, -0.5000000000000000000 ) ) ;
#130 = DATE_AND_TIME ( #137, #120 ) ;
#131 = DIRECTION ( 'NONE',  ( -0.0000000000000000000, -0.0000000000000000000, -1.000000000000000000 ) ) ;
#132 = CIRCLE ( 'NONE', #61, 5.000000000000000000 ) ;
#133 = DIRECTION ( 'NONE',  ( 0.0000000000000000000, 0.0000000000000000000, 1.000000000000000000 ) ) ;
#134 = CARTESIAN_POINT ( 'NONE',  ( -5.000000000000000000, 0.0000000000000000000, -0.5000000000000000000 ) ) ;
#135 = ORIENTED_EDGE ( 'NONE', *, *, #106, .T. ) ;
#136 = PRODUCT_RELATED_PRODUCT_CATEGORY ( 'detail', '', ( #51 ) ) ;
#137 = CALENDAR_DATE ( 2019, 7, 1 ) ;
#138 = CYLINDRICAL_SURFACE ( 'NONE', #97, 5.000000000000000000 ) ;
#139 = AXIS2_PLACEMENT_3D ( 'NONE', #144, #165, #55 ) ;
#140 = PLANE ( 'NONE',  #122 ) ;
#141 = ORIENTED_EDGE ( 'NONE', *, *, #156, .F. ) ;
#142 = DIRECTION ( 'NONE',  ( -0.0000000000000000000, -0.0000000000000000000, -1.000000000000000000 ) ) ;
#143 = ORIENTED_EDGE ( 'NONE', *, *, #104, .F. ) ;
#144 = CARTESIAN_POINT ( 'NONE',  ( 0.0000000000000000000, 0.0000000000000000000, -0.5000000000000000000 ) ) ;
#145 = CC_DESIGN_PERSON_AND_ORGANIZATION_ASSIGNMENT ( #158, #152, ( #18 ) ) ;
#146 = CARTESIAN_POINT ( 'NONE',  ( -5.000000000000000000, 0.0000000000000000000, 0.5000000000000000000 ) ) ;
#147 = DIRECTION ( 'NONE',  ( 1.000000000000000000, 0.0000000000000000000, 0.0000000000000000000 ) ) ;
#148 = ORIENTED_EDGE ( 'NONE', *, *, #174, .T. ) ;
#149 = AXIS2_PLACEMENT_3D ( 'NONE', #82, #109, #81 ) ;
#150 = APPROVAL_ROLE ( '' ) ;
#151 = PERSON_AND_ORGANIZATION_ROLE ( 'design_owner' ) ;
#152 = PERSON_AND_ORGANIZATION_ROLE ( 'creator' ) ;
#153 = DESIGN_CONTEXT ( 'detailed design', #154, 'design' ) ;
#154 = APPLICATION_CONTEXT ( 'configuration controlled 3d designs of mechanical parts and assemblies' ) ;
#155 = PERSON_AND_ORGANIZATION ( #11, #111 ) ;
#156 = EDGE_CURVE ( 'NONE', #163, #115, #8, .T. ) ;
#157 = LOCAL_TIME ( 10, 46, 37.00000000000000000, #39 ) ;
#158 = PERSON_AND_ORGANIZATION ( #11, #111 ) ;
#159 = EDGE_LOOP ( 'NONE', ( #135, #121 ) ) ;
#160 = CC_DESIGN_PERSON_AND_ORGANIZATION_ASSIGNMENT ( #167, #166, ( #93 ) ) ;
#161 = DIRECTION ( 'NONE',  ( -0.0000000000000000000, -0.0000000000000000000, -1.000000000000000000 ) ) ;
#162 = APPROVAL_PERSON_ORGANIZATION ( #29, #69, #84 ) ;
#163 = VERTEX_POINT ( 'NONE', #134 ) ;
#164 = CARTESIAN_POINT ( 'NONE',  ( 0.0000000000000000000, 0.0000000000000000000, 0.5000000000000000000 ) ) ;
#165 = DIRECTION ( 'NONE',  ( 0.0000000000000000000, 0.0000000000000000000, 1.000000000000000000 ) ) ;
#166 = PERSON_AND_ORGANIZATION_ROLE ( 'creator' ) ;
#167 = PERSON_AND_ORGANIZATION ( #11, #111 ) ;
#168 = APPROVAL_ROLE ( '' ) ;
#169 = DATE_TIME_ROLE ( 'creation_date' ) ;
#170 = PERSON_AND_ORGANIZATION_ROLE ( 'design_supplier' ) ;
#171 = COORDINATED_UNIVERSAL_TIME_OFFSET ( 5, 0, .BEHIND. ) ;
#172 = CIRCLE ( 'NONE', #44, 5.000000000000000000 ) ;
#173 = EDGE_LOOP ( 'NONE', ( #141, #2 ) ) ;
#174 = EDGE_CURVE ( 'NONE', #65, #115, #68, .T. ) ;
#175 = FACE_OUTER_BOUND ( 'NONE', #32, .T. ) ;
ENDSEC;
END-ISO-10303-21;
