ISO-10303-21;
HEADER;
FILE_DESCRIPTION (( 'STEP AP203' ),
    '1' );
FILE_NAME ('Web Model Lightsmyth Gratings_16870.step',
    '2021-03-11T20:26:27',
    ( '' ),
    ( '' ),
    'SwSTEP 2.0',
    'SolidWorks 2018',
    '' );
FILE_SCHEMA (( 'CONFIG_CONTROL_DESIGN' ));
ENDSEC;

DATA;
#1 = CARTESIAN_POINT ( 'NONE',  ( -15.89999999999999680, 12.40000000000000213, 0.0000000000000000000 ) ) ;
#2 = PLANE ( 'NONE',  #174 ) ;
#3 = APPROVAL_DATE_TIME ( #127, #88 ) ;
#4 = VECTOR ( 'NONE', #84, 1000.000000000000000 ) ;
#5 = EDGE_LOOP ( 'NONE', ( #182, #214, #31, #143 ) ) ;
#6 = CARTESIAN_POINT ( 'NONE',  ( 15.90000000000000391, 12.40000000000000213, 0.9499999999999999556 ) ) ;
#7 = CARTESIAN_POINT ( 'NONE',  ( 15.90000000000000391, -12.40000000000000036, 0.0000000000000000000 ) ) ;
#8 = CALENDAR_DATE ( 2021, 11, 3 ) ;
#9 = ORIENTED_EDGE ( 'NONE', *, *, #119, .T. ) ;
#10 = AXIS2_PLACEMENT_3D ( 'NONE', #132, #135, #47 ) ;
#11 = APPROVAL_STATUS ( 'not_yet_approved' ) ;
#12 = DATE_TIME_ROLE ( 'classification_date' ) ;
#13 = VECTOR ( 'NONE', #141, 1000.000000000000000 ) ;
#14 = ORIENTED_EDGE ( 'NONE', *, *, #62, .F. ) ;
#15 = FACE_OUTER_BOUND ( 'NONE', #93, .T. ) ;
#16 = LINE ( 'NONE', #120, #19 ) ;
#17 = ORIENTED_EDGE ( 'NONE', *, *, #134, .F. ) ;
#18 = DIRECTION ( 'NONE',  ( -0.0000000000000000000, -0.0000000000000000000, -1.000000000000000000 ) ) ;
#19 = VECTOR ( 'NONE', #130, 1000.000000000000000 ) ;
#20 = CARTESIAN_POINT ( 'NONE',  ( -15.89999999999999680, -12.40000000000000036, 0.0000000000000000000 ) ) ;
#21 = LOCAL_TIME ( 15, 26, 27.00000000000000000, #152 ) ;
#22 = VECTOR ( 'NONE', #18, 1000.000000000000000 ) ;
#23 = CC_DESIGN_PERSON_AND_ORGANIZATION_ASSIGNMENT ( #27, #69, ( #235 ) ) ;
#24 = APPROVAL_DATE_TIME ( #232, #179 ) ;
#25 = DIRECTION ( 'NONE',  ( 0.0000000000000000000, 0.0000000000000000000, 1.000000000000000000 ) ) ;
#26 = APPLICATION_CONTEXT ( 'configuration controlled 3d designs of mechanical parts and assemblies' ) ;
#27 = PERSON_AND_ORGANIZATION ( #198, #80 ) ;
#28 = AXIS2_PLACEMENT_3D ( 'NONE', #197, #144, #215 ) ;
#29 = PERSON_AND_ORGANIZATION ( #198, #80 ) ;
#30 = ORIENTED_EDGE ( 'NONE', *, *, #195, .F. ) ;
#31 = ORIENTED_EDGE ( 'NONE', *, *, #236, .T. ) ;
#32 = ORIENTED_EDGE ( 'NONE', *, *, #64, .T. ) ;
#33 = APPROVAL ( #158, 'UNSPECIFIED' ) ;
#34 = AXIS2_PLACEMENT_3D ( 'NONE', #65, #187, #205 ) ;
#35 = DIRECTION ( 'NONE',  ( 0.0000000000000000000, 0.0000000000000000000, 1.000000000000000000 ) ) ;
#36 = ADVANCED_FACE ( 'NONE', ( #103 ), #177, .F. ) ;
#37 = ADVANCED_FACE ( 'NONE', ( #151 ), #234, .F. ) ;
#38 = DATE_AND_TIME ( #8, #91 ) ;
#39 = ORIENTED_EDGE ( 'NONE', *, *, #228, .F. ) ;
#40 = CARTESIAN_POINT ( 'NONE',  ( 15.90000000000000391, -12.40000000000000036, 0.9499999999999999556 ) ) ;
#41 = CALENDAR_DATE ( 2021, 11, 3 ) ;
#42 = CC_DESIGN_PERSON_AND_ORGANIZATION_ASSIGNMENT ( #225, #51, ( #224 ) ) ;
#43 = ADVANCED_BREP_SHAPE_REPRESENTATION ( 'Web Model Lightsmyth Gratings_16870', ( #230, #99 ), #89 ) ;
#44 = PLANE ( 'NONE',  #34 ) ;
#45 = APPLICATION_CONTEXT ( 'configuration controlled 3d designs of mechanical parts and assemblies' ) ;
#46 = EDGE_CURVE ( 'NONE', #73, #110, #201, .T. ) ;
#47 = DIRECTION ( 'NONE',  ( -1.000000000000000000, 0.0000000000000000000, -0.0000000000000000000 ) ) ;
#48 = LINE ( 'NONE', #113, #192 ) ;
#49 = VERTEX_POINT ( 'NONE', #79 ) ;
#50 = DIRECTION ( 'NONE',  ( 0.0000000000000000000, 1.000000000000000000, 0.0000000000000000000 ) ) ;
#51 = PERSON_AND_ORGANIZATION_ROLE ( 'creator' ) ;
#52 = CC_DESIGN_APPROVAL ( #33, ( #224 ) ) ;
#53 = APPROVAL_ROLE ( '' ) ;
#54 = ORIENTED_EDGE ( 'NONE', *, *, #184, .F. ) ;
#55 = PERSON_AND_ORGANIZATION ( #198, #80 ) ;
#56 = LINE ( 'NONE', #136, #4 ) ;
#57 = EDGE_CURVE ( 'NONE', #142, #178, #48, .T. ) ;
#58 = CLOSED_SHELL ( 'NONE', ( #37, #116, #36, #147, #163, #95 ) ) ;
#59 = CARTESIAN_POINT ( 'NONE',  ( 15.90000000000000391, -12.40000000000000036, 0.9499999999999999556 ) ) ;
#60 = CC_DESIGN_DATE_AND_TIME_ASSIGNMENT ( #133, #12, ( #115 ) ) ;
#61 = ORIENTED_EDGE ( 'NONE', *, *, #212, .T. ) ;
#62 = EDGE_CURVE ( 'NONE', #166, #142, #145, .T. ) ;
#63 = FACE_OUTER_BOUND ( 'NONE', #5, .T. ) ;
#64 = EDGE_CURVE ( 'NONE', #49, #114, #109, .T. ) ;
#65 = CARTESIAN_POINT ( 'NONE',  ( -15.89999999999999680, 12.40000000000000213, 0.9499999999999999556 ) ) ;
#66 = PLANE ( 'NONE',  #231 ) ;
#67 = LINE ( 'NONE', #108, #154 ) ;
#68 = PERSON_AND_ORGANIZATION_ROLE ( 'design_owner' ) ;
#69 = PERSON_AND_ORGANIZATION_ROLE ( 'creator' ) ;
#70 = CARTESIAN_POINT ( 'NONE',  ( 0.0000000000000000000, 0.0000000000000000000, 0.0000000000000000000 ) ) ;
#71 = COORDINATED_UNIVERSAL_TIME_OFFSET ( 5, 0, .BEHIND. ) ;
#72 = MECHANICAL_CONTEXT ( 'NONE', #45, 'mechanical' ) ;
#73 = VERTEX_POINT ( 'NONE', #96 ) ;
#74 = VERTEX_POINT ( 'NONE', #219 ) ;
#75 = VECTOR ( 'NONE', #203, 1000.000000000000000 ) ;
#76 = CC_DESIGN_PERSON_AND_ORGANIZATION_ASSIGNMENT ( #217, #87, ( #224 ) ) ;
#77 = LOCAL_TIME ( 15, 26, 27.00000000000000000, #71 ) ;
#78 = CARTESIAN_POINT ( 'NONE',  ( 0.0000000000000000000, 0.0000000000000000000, 0.0000000000000000000 ) ) ;
#79 = CARTESIAN_POINT ( 'NONE',  ( -15.89999999999999680, -12.40000000000000036, 0.9499999999999999556 ) ) ;
#80 = ORGANIZATION ( 'UNSPECIFIED', 'UNSPECIFIED', '' ) ;
#81 = VECTOR ( 'NONE', #122, 1000.000000000000000 ) ;
#82 = ORIENTED_EDGE ( 'NONE', *, *, #46, .T. ) ;
#83 = DIRECTION ( 'NONE',  ( 1.000000000000000000, 0.0000000000000000000, 0.0000000000000000000 ) ) ;
#84 = DIRECTION ( 'NONE',  ( 1.000000000000000000, 0.0000000000000000000, 0.0000000000000000000 ) ) ;
#85 = EDGE_LOOP ( 'NONE', ( #86, #121, #54, #90 ) ) ;
#86 = ORIENTED_EDGE ( 'NONE', *, *, #221, .F. ) ;
#87 = PERSON_AND_ORGANIZATION_ROLE ( 'design_supplier' ) ;
#88 = APPROVAL ( #11, 'UNSPECIFIED' ) ;
#89 =( GEOMETRIC_REPRESENTATION_CONTEXT ( 3 ) GLOBAL_UNCERTAINTY_ASSIGNED_CONTEXT ( ( #100 ) ) GLOBAL_UNIT_ASSIGNED_CONTEXT ( ( #172, #190, #107 ) ) REPRESENTATION_CONTEXT ( 'NONE', 'WORKASPACE' ) );
#90 = ORIENTED_EDGE ( 'NONE', *, *, #46, .F. ) ;
#91 = LOCAL_TIME ( 15, 26, 27.00000000000000000, #169 ) ;
#92 = CC_DESIGN_APPROVAL ( #88, ( #115 ) ) ;
#93 = EDGE_LOOP ( 'NONE', ( #9, #30, #39, #32 ) ) ;
#94 = EDGE_LOOP ( 'NONE', ( #118, #138, #14, #210 ) ) ;
#95 = ADVANCED_FACE ( 'NONE', ( #98 ), #2, .T. ) ;
#96 = CARTESIAN_POINT ( 'NONE',  ( 15.90000000000000391, 12.40000000000000213, 0.0000000000000000000 ) ) ;
#97 = APPROVAL_PERSON_ORGANIZATION ( #220, #179, #208 ) ;
#98 = FACE_OUTER_BOUND ( 'NONE', #85, .T. ) ;
#99 = AXIS2_PLACEMENT_3D ( 'NONE', #70, #25, #153 ) ;
#100 = UNCERTAINTY_MEASURE_WITH_UNIT (LENGTH_MEASURE( 1.000000000000000082E-05 ), #172, 'distance_accuracy_value', 'NONE');
#101 = CC_DESIGN_PERSON_AND_ORGANIZATION_ASSIGNMENT ( #188, #68, ( #194 ) ) ;
#102 = LINE ( 'NONE', #125, #159 ) ;
#103 = FACE_OUTER_BOUND ( 'NONE', #146, .T. ) ;
#104 = CARTESIAN_POINT ( 'NONE',  ( -15.89999999999999680, -12.40000000000000036, 0.9499999999999999556 ) ) ;
#105 = SECURITY_CLASSIFICATION_LEVEL ( 'unclassified' ) ;
#106 = LINE ( 'NONE', #7, #204 ) ;
#107 =( NAMED_UNIT ( * ) SI_UNIT ( $, .STERADIAN. ) SOLID_ANGLE_UNIT ( ) );
#108 = CARTESIAN_POINT ( 'NONE',  ( 15.90000000000000391, 12.40000000000000213, 0.9499999999999999556 ) ) ;
#109 = LINE ( 'NONE', #199, #22 ) ;
#110 = VERTEX_POINT ( 'NONE', #1 ) ;
#111 = APPROVAL_DATE_TIME ( #38, #33 ) ;
#112 = SHAPE_DEFINITION_REPRESENTATION ( #170, #43 ) ;
#113 = CARTESIAN_POINT ( 'NONE',  ( -15.89999999999999680, 12.40000000000000213, 0.9499999999999999556 ) ) ;
#114 = VERTEX_POINT ( 'NONE', #150 ) ;
#115 = SECURITY_CLASSIFICATION ( '', '', #105 ) ;
#116 = ADVANCED_FACE ( 'NONE', ( #157 ), #44, .F. ) ;
#117 = LOCAL_TIME ( 15, 26, 27.00000000000000000, #209 ) ;
#118 = ORIENTED_EDGE ( 'NONE', *, *, #221, .T. ) ;
#119 = EDGE_CURVE ( 'NONE', #114, #74, #237, .T. ) ;
#120 = CARTESIAN_POINT ( 'NONE',  ( -15.89999999999999680, 12.40000000000000213, 0.9499999999999999556 ) ) ;
#121 = ORIENTED_EDGE ( 'NONE', *, *, #119, .F. ) ;
#122 = DIRECTION ( 'NONE',  ( -0.0000000000000000000, -1.000000000000000000, -0.0000000000000000000 ) ) ;
#123 = CALENDAR_DATE ( 2021, 11, 3 ) ;
#124 = ORIENTED_EDGE ( 'NONE', *, *, #57, .F. ) ;
#125 = CARTESIAN_POINT ( 'NONE',  ( -15.89999999999999680, -12.40000000000000036, 0.0000000000000000000 ) ) ;
#126 = CC_DESIGN_SECURITY_CLASSIFICATION ( #115, ( #224 ) ) ;
#127 = DATE_AND_TIME ( #123, #77 ) ;
#128 = DIRECTION ( 'NONE',  ( 0.0000000000000000000, 0.0000000000000000000, -1.000000000000000000 ) ) ;
#129 = COORDINATED_UNIVERSAL_TIME_OFFSET ( 5, 0, .BEHIND. ) ;
#130 = DIRECTION ( 'NONE',  ( -0.0000000000000000000, -0.0000000000000000000, -1.000000000000000000 ) ) ;
#131 = CC_DESIGN_APPROVAL ( #179, ( #235 ) ) ;
#132 = CARTESIAN_POINT ( 'NONE',  ( 0.0000000000000000000, 0.0000000000000000000, 0.9499999999999999556 ) ) ;
#133 = DATE_AND_TIME ( #213, #117 ) ;
#134 = EDGE_CURVE ( 'NONE', #178, #110, #16, .T. ) ;
#135 = DIRECTION ( 'NONE',  ( 0.0000000000000000000, 0.0000000000000000000, -1.000000000000000000 ) ) ;
#136 = CARTESIAN_POINT ( 'NONE',  ( -15.89999999999999680, -12.40000000000000036, 0.9499999999999999556 ) ) ;
#137 = PERSON_AND_ORGANIZATION ( #198, #80 ) ;
#138 = ORIENTED_EDGE ( 'NONE', *, *, #212, .F. ) ;
#139 = APPLICATION_PROTOCOL_DEFINITION ( 'international standard', 'config_control_design', 1994, #26 ) ;
#140 = DESIGN_CONTEXT ( 'detailed design', #26, 'design' ) ;
#141 = DIRECTION ( 'NONE',  ( -0.0000000000000000000, -0.0000000000000000000, -1.000000000000000000 ) ) ;
#142 = VERTEX_POINT ( 'NONE', #6 ) ;
#143 = ORIENTED_EDGE ( 'NONE', *, *, #228, .T. ) ;
#144 = DIRECTION ( 'NONE',  ( 1.000000000000000000, 0.0000000000000000000, 0.0000000000000000000 ) ) ;
#145 = LINE ( 'NONE', #40, #75 ) ;
#146 = EDGE_LOOP ( 'NONE', ( #162, #175, #196, #227 ) ) ;
#147 = ADVANCED_FACE ( 'NONE', ( #15 ), #66, .F. ) ;
#148 = VECTOR ( 'NONE', #165, 1000.000000000000000 ) ;
#149 = CARTESIAN_POINT ( 'NONE',  ( -15.89999999999999680, -12.40000000000000036, 0.9499999999999999556 ) ) ;
#150 = CARTESIAN_POINT ( 'NONE',  ( -15.89999999999999680, -12.40000000000000036, 0.0000000000000000000 ) ) ;
#151 = FACE_OUTER_BOUND ( 'NONE', #94, .T. ) ;
#152 = COORDINATED_UNIVERSAL_TIME_OFFSET ( 5, 0, .BEHIND. ) ;
#153 = DIRECTION ( 'NONE',  ( 1.000000000000000000, 0.0000000000000000000, 0.0000000000000000000 ) ) ;
#154 = VECTOR ( 'NONE', #156, 1000.000000000000000 ) ;
#155 = PRODUCT_RELATED_PRODUCT_CATEGORY ( 'detail', '', ( #194 ) ) ;
#156 = DIRECTION ( 'NONE',  ( -0.0000000000000000000, -0.0000000000000000000, -1.000000000000000000 ) ) ;
#157 = FACE_OUTER_BOUND ( 'NONE', #189, .T. ) ;
#158 = APPROVAL_STATUS ( 'not_yet_approved' ) ;
#159 = VECTOR ( 'NONE', #222, 1000.000000000000000 ) ;
#160 = DIRECTION ( 'NONE',  ( -1.000000000000000000, -0.0000000000000000000, -0.0000000000000000000 ) ) ;
#161 = LOCAL_TIME ( 15, 26, 27.00000000000000000, #129 ) ;
#162 = ORIENTED_EDGE ( 'NONE', *, *, #184, .T. ) ;
#163 = ADVANCED_FACE ( 'NONE', ( #63 ), #168, .F. ) ;
#164 = CARTESIAN_POINT ( 'NONE',  ( -15.89999999999999680, 12.40000000000000213, 0.0000000000000000000 ) ) ;
#165 = DIRECTION ( 'NONE',  ( -1.000000000000000000, -0.0000000000000000000, -0.0000000000000000000 ) ) ;
#166 = VERTEX_POINT ( 'NONE', #186 ) ;
#167 = DIRECTION ( 'NONE',  ( 0.0000000000000000000, 1.000000000000000000, 0.0000000000000000000 ) ) ;
#168 = PLANE ( 'NONE',  #10 ) ;
#169 = COORDINATED_UNIVERSAL_TIME_OFFSET ( 5, 0, .BEHIND. ) ;
#170 = PRODUCT_DEFINITION_SHAPE ( 'NONE', 'NONE',  #235 ) ;
#171 = APPLICATION_PROTOCOL_DEFINITION ( 'international standard', 'config_control_design', 1994, #45 ) ;
#172 =( LENGTH_UNIT ( ) NAMED_UNIT ( * ) SI_UNIT ( .MILLI., .METRE. ) );
#173 = CARTESIAN_POINT ( 'NONE',  ( 15.90000000000000391, -12.40000000000000036, 0.9499999999999999556 ) ) ;
#174 = AXIS2_PLACEMENT_3D ( 'NONE', #78, #128, #202 ) ;
#175 = ORIENTED_EDGE ( 'NONE', *, *, #64, .F. ) ;
#176 = APPROVAL_PERSON_ORGANIZATION ( #55, #88, #223 ) ;
#177 = PLANE ( 'NONE',  #28 ) ;
#178 = VERTEX_POINT ( 'NONE', #191 ) ;
#179 = APPROVAL ( #226, 'UNSPECIFIED' ) ;
#180 = APPROVAL_PERSON_ORGANIZATION ( #137, #33, #53 ) ;
#181 = CALENDAR_DATE ( 2021, 11, 3 ) ;
#182 = ORIENTED_EDGE ( 'NONE', *, *, #62, .T. ) ;
#183 = DIRECTION ( 'NONE',  ( 0.0000000000000000000, -0.0000000000000000000, 1.000000000000000000 ) ) ;
#184 = EDGE_CURVE ( 'NONE', #110, #114, #102, .T. ) ;
#185 = VECTOR ( 'NONE', #83, 1000.000000000000000 ) ;
#186 = CARTESIAN_POINT ( 'NONE',  ( 15.90000000000000391, -12.40000000000000036, 0.9499999999999999556 ) ) ;
#187 = DIRECTION ( 'NONE',  ( 0.0000000000000000000, -1.000000000000000000, 0.0000000000000000000 ) ) ;
#188 = PERSON_AND_ORGANIZATION ( #198, #80 ) ;
#189 = EDGE_LOOP ( 'NONE', ( #82, #17, #124, #61 ) ) ;
#190 =( NAMED_UNIT ( * ) PLANE_ANGLE_UNIT ( ) SI_UNIT ( $, .RADIAN. ) );
#191 = CARTESIAN_POINT ( 'NONE',  ( -15.89999999999999680, 12.40000000000000213, 0.9499999999999999556 ) ) ;
#192 = VECTOR ( 'NONE', #160, 1000.000000000000000 ) ;
#193 = CC_DESIGN_DATE_AND_TIME_ASSIGNMENT ( #200, #229, ( #235 ) ) ;
#194 = PRODUCT ( 'Web Model Lightsmyth Gratings_16870', 'Web Model Lightsmyth Gratings_16870', '', ( #72 ) ) ;
#195 = EDGE_CURVE ( 'NONE', #166, #74, #206, .T. ) ;
#196 = ORIENTED_EDGE ( 'NONE', *, *, #236, .F. ) ;
#197 = CARTESIAN_POINT ( 'NONE',  ( -15.89999999999999680, -12.40000000000000036, 0.9499999999999999556 ) ) ;
#198 = PERSON ( 'UNSPECIFIED', 'UNSPECIFIED', 'UNSPECIFIED', ('UNSPECIFIED'), ('UNSPECIFIED'), ('UNSPECIFIED') ) ;
#199 = CARTESIAN_POINT ( 'NONE',  ( -15.89999999999999680, -12.40000000000000036, 0.9499999999999999556 ) ) ;
#200 = DATE_AND_TIME ( #181, #161 ) ;
#201 = LINE ( 'NONE', #164, #148 ) ;
#202 = DIRECTION ( 'NONE',  ( -1.000000000000000000, 0.0000000000000000000, -0.0000000000000000000 ) ) ;
#203 = DIRECTION ( 'NONE',  ( 0.0000000000000000000, 1.000000000000000000, 0.0000000000000000000 ) ) ;
#204 = VECTOR ( 'NONE', #50, 1000.000000000000000 ) ;
#205 = DIRECTION ( 'NONE',  ( 0.0000000000000000000, -0.0000000000000000000, -1.000000000000000000 ) ) ;
#206 = LINE ( 'NONE', #173, #13 ) ;
#207 = AXIS2_PLACEMENT_3D ( 'NONE', #59, #218, #35 ) ;
#208 = APPROVAL_ROLE ( '' ) ;
#209 = COORDINATED_UNIVERSAL_TIME_OFFSET ( 5, 0, .BEHIND. ) ;
#210 = ORIENTED_EDGE ( 'NONE', *, *, #195, .T. ) ;
#211 = PERSON_AND_ORGANIZATION_ROLE ( 'classification_officer' ) ;
#212 = EDGE_CURVE ( 'NONE', #142, #73, #67, .T. ) ;
#213 = CALENDAR_DATE ( 2021, 11, 3 ) ;
#214 = ORIENTED_EDGE ( 'NONE', *, *, #57, .T. ) ;
#215 = DIRECTION ( 'NONE',  ( 0.0000000000000000000, 0.0000000000000000000, -1.000000000000000000 ) ) ;
#216 = CC_DESIGN_PERSON_AND_ORGANIZATION_ASSIGNMENT ( #29, #211, ( #115 ) ) ;
#217 = PERSON_AND_ORGANIZATION ( #198, #80 ) ;
#218 = DIRECTION ( 'NONE',  ( -1.000000000000000000, 0.0000000000000000000, 0.0000000000000000000 ) ) ;
#219 = CARTESIAN_POINT ( 'NONE',  ( 15.90000000000000391, -12.40000000000000036, 0.0000000000000000000 ) ) ;
#220 = PERSON_AND_ORGANIZATION ( #198, #80 ) ;
#221 = EDGE_CURVE ( 'NONE', #74, #73, #106, .T. ) ;
#222 = DIRECTION ( 'NONE',  ( -0.0000000000000000000, -1.000000000000000000, -0.0000000000000000000 ) ) ;
#223 = APPROVAL_ROLE ( '' ) ;
#224 = PRODUCT_DEFINITION_FORMATION_WITH_SPECIFIED_SOURCE ( 'ANY', '', #194, .NOT_KNOWN. ) ;
#225 = PERSON_AND_ORGANIZATION ( #198, #80 ) ;
#226 = APPROVAL_STATUS ( 'not_yet_approved' ) ;
#227 = ORIENTED_EDGE ( 'NONE', *, *, #134, .T. ) ;
#228 = EDGE_CURVE ( 'NONE', #49, #166, #56, .T. ) ;
#229 = DATE_TIME_ROLE ( 'creation_date' ) ;
#230 = MANIFOLD_SOLID_BREP ( 'Boss-Extrude1', #58 ) ;
#231 = AXIS2_PLACEMENT_3D ( 'NONE', #149, #167, #183 ) ;
#232 = DATE_AND_TIME ( #41, #21 ) ;
#233 = LINE ( 'NONE', #104, #81 ) ;
#234 = PLANE ( 'NONE',  #207 ) ;
#235 = PRODUCT_DEFINITION ( 'UNKNOWN', '', #224, #140 ) ;
#236 = EDGE_CURVE ( 'NONE', #178, #49, #233, .T. ) ;
#237 = LINE ( 'NONE', #20, #185 ) ;
ENDSEC;
END-ISO-10303-21;
