ISO-10303-21;
HEADER;
FILE_DESCRIPTION (( 'STEP AP203' ),
    '1' );
FILE_NAME ('34429_37015.step',
    '2017-09-06T15:46:49',
    ( '' ),
    ( '' ),
    'SwSTEP 2.0',
    'SolidWorks 2016',
    '' );
FILE_SCHEMA (( 'CONFIG_CONTROL_DESIGN' ));
ENDSEC;

DATA;
#1 = APPROVAL ( #61, 'UNSPECIFIED' ) ;
#2 = MECHANICAL_CONTEXT ( 'NONE', #151, 'mechanical' ) ;
#3 = DIRECTION ( 'NONE',  ( 1.000000000000000000, 0.0000000000000000000, 0.0000000000000000000 ) ) ;
#4 = PERSON_AND_ORGANIZATION ( #152, #119 ) ;
#5 = APPROVAL_ROLE ( '' ) ;
#6 = CALENDAR_DATE ( 2017, 6, 9 ) ;
#7 = LOCAL_TIME ( 11, 46, 49.00000000000000000, #76 ) ;
#8 = VECTOR ( 'NONE', #67, 1000.000000000000000 ) ;
#9 = DESIGN_CONTEXT ( 'detailed design', #83, 'design' ) ;
#10 = AXIS2_PLACEMENT_3D ( 'NONE', #138, #140, #127 ) ;
#11 = DIRECTION ( 'NONE',  ( -1.000000000000000000, 0.0000000000000000000, 0.0000000000000000000 ) ) ;
#12 = PERSON_AND_ORGANIZATION ( #152, #119 ) ;
#13 = ORIENTED_EDGE ( 'NONE', *, *, #104, .T. ) ;
#14 = PLANE ( 'NONE',  #10 ) ;
#15 = SHAPE_DEFINITION_REPRESENTATION ( #54, #108 ) ;
#16 = ORIENTED_EDGE ( 'NONE', *, *, #148, .T. ) ;
#17 = PRODUCT_RELATED_PRODUCT_CATEGORY ( 'detail', '', ( #129 ) ) ;
#18 = LOCAL_TIME ( 11, 46, 49.00000000000000000, #155 ) ;
#19 = VERTEX_POINT ( 'NONE', #53 ) ;
#20 = AXIS2_PLACEMENT_3D ( 'NONE', #72, #112, #43 ) ;
#21 = CC_DESIGN_DATE_AND_TIME_ASSIGNMENT ( #111, #159, ( #173 ) ) ;
#22 = CYLINDRICAL_SURFACE ( 'NONE', #41, 25.00000000000000000 ) ;
#23 = DIRECTION ( 'NONE',  ( -1.000000000000000000, 0.0000000000000000000, 0.0000000000000000000 ) ) ;
#24 = PLANE ( 'NONE',  #143 ) ;
#25 = DIRECTION ( 'NONE',  ( 0.0000000000000000000, 0.0000000000000000000, 1.000000000000000000 ) ) ;
#26 = EDGE_LOOP ( 'NONE', ( #164, #90 ) ) ;
#27 = DIRECTION ( 'NONE',  ( 1.000000000000000000, 0.0000000000000000000, 0.0000000000000000000 ) ) ;
#28 = EDGE_LOOP ( 'NONE', ( #103, #44, #126, #121 ) ) ;
#29 = SECURITY_CLASSIFICATION_LEVEL ( 'unclassified' ) ;
#30 = AXIS2_PLACEMENT_3D ( 'NONE', #169, #171, #3 ) ;
#31 = VERTEX_POINT ( 'NONE', #78 ) ;
#32 = APPROVAL_PERSON_ORGANIZATION ( #106, #49, #69 ) ;
#33 = CC_DESIGN_PERSON_AND_ORGANIZATION_ASSIGNMENT ( #42, #71, ( #129 ) ) ;
#34 = APPROVAL_PERSON_ORGANIZATION ( #52, #131, #46 ) ;
#35 = PERSON_AND_ORGANIZATION ( #152, #119 ) ;
#36 = EDGE_CURVE ( 'NONE', #19, #105, #85, .T. ) ;
#37 = AXIS2_PLACEMENT_3D ( 'NONE', #172, #153, #94 ) ;
#38 = COORDINATED_UNIVERSAL_TIME_OFFSET ( 5, 0, .BEHIND. ) ;
#39 = CARTESIAN_POINT ( 'NONE',  ( 0.0000000000000000000, 0.0000000000000000000, 0.0000000000000000000 ) ) ;
#40 = DIRECTION ( 'NONE',  ( 0.0000000000000000000, 0.0000000000000000000, 1.000000000000000000 ) ) ;
#41 = AXIS2_PLACEMENT_3D ( 'NONE', #93, #124, #23 ) ;
#42 = PERSON_AND_ORGANIZATION ( #152, #119 ) ;
#43 = DIRECTION ( 'NONE',  ( 1.000000000000000000, 0.0000000000000000000, 0.0000000000000000000 ) ) ;
#44 = ORIENTED_EDGE ( 'NONE', *, *, #160, .F. ) ;
#45 = CC_DESIGN_PERSON_AND_ORGANIZATION_ASSIGNMENT ( #12, #168, ( #75 ) ) ;
#46 = APPROVAL_ROLE ( '' ) ;
#47 = ORIENTED_EDGE ( 'NONE', *, *, #139, .F. ) ;
#48 = CALENDAR_DATE ( 2017, 6, 9 ) ;
#49 = APPROVAL ( #136, 'UNSPECIFIED' ) ;
#50 = CC_DESIGN_DATE_AND_TIME_ASSIGNMENT ( #137, #98, ( #75 ) ) ;
#51 = CARTESIAN_POINT ( 'NONE',  ( -25.00000000000000000, 0.0000000000000000000, 3.000000000000000000 ) ) ;
#52 = PERSON_AND_ORGANIZATION ( #152, #119 ) ;
#53 = CARTESIAN_POINT ( 'NONE',  ( -25.00000000000000000, 0.0000000000000000000, 3.000000000000000000 ) ) ;
#54 = PRODUCT_DEFINITION_SHAPE ( 'NONE', 'NONE',  #75 ) ;
#55 = VERTEX_POINT ( 'NONE', #122 ) ;
#56 =( LENGTH_UNIT ( ) NAMED_UNIT ( * ) SI_UNIT ( .MILLI., .METRE. ) );
#57 = APPLICATION_PROTOCOL_DEFINITION ( 'international standard', 'config_control_design', 1994, #151 ) ;
#58 = COORDINATED_UNIVERSAL_TIME_OFFSET ( 5, 0, .BEHIND. ) ;
#59 =( NAMED_UNIT ( * ) PLANE_ANGLE_UNIT ( ) SI_UNIT ( $, .RADIAN. ) );
#60 = ADVANCED_FACE ( 'NONE', ( #130 ), #175, .T. ) ;
#61 = APPROVAL_STATUS ( 'not_yet_approved' ) ;
#62 = ADVANCED_FACE ( 'NONE', ( #100 ), #22, .T. ) ;
#63 = PERSON_AND_ORGANIZATION_ROLE ( 'design_supplier' ) ;
#64 = PRODUCT_DEFINITION_FORMATION_WITH_SPECIFIED_SOURCE ( 'ANY', '', #129, .NOT_KNOWN. ) ;
#65 = CC_DESIGN_APPROVAL ( #49, ( #75 ) ) ;
#66 = LINE ( 'NONE', #156, #74 ) ;
#67 = DIRECTION ( 'NONE',  ( -0.0000000000000000000, -0.0000000000000000000, -1.000000000000000000 ) ) ;
#68 = CLOSED_SHELL ( 'NONE', ( #62, #60, #114, #113 ) ) ;
#69 = APPROVAL_ROLE ( '' ) ;
#70 = CC_DESIGN_APPROVAL ( #1, ( #173 ) ) ;
#71 = PERSON_AND_ORGANIZATION_ROLE ( 'design_owner' ) ;
#72 = CARTESIAN_POINT ( 'NONE',  ( 0.0000000000000000000, 0.0000000000000000000, 0.0000000000000000000 ) ) ;
#73 =( NAMED_UNIT ( * ) SI_UNIT ( $, .STERADIAN. ) SOLID_ANGLE_UNIT ( ) );
#74 = VECTOR ( 'NONE', #95, 1000.000000000000000 ) ;
#75 = PRODUCT_DEFINITION ( 'UNKNOWN', '', #64, #9 ) ;
#76 = COORDINATED_UNIVERSAL_TIME_OFFSET ( 5, 0, .BEHIND. ) ;
#77 = CC_DESIGN_PERSON_AND_ORGANIZATION_ASSIGNMENT ( #4, #158, ( #173 ) ) ;
#78 = CARTESIAN_POINT ( 'NONE',  ( 25.00000000000000000, 3.061616997868383000E-015, 0.0000000000000000000 ) ) ;
#79 = PERSON_AND_ORGANIZATION ( #152, #119 ) ;
#80 = FACE_OUTER_BOUND ( 'NONE', #26, .T. ) ;
#81 = AXIS2_PLACEMENT_3D ( 'NONE', #109, #25, #125 ) ;
#82 = DIRECTION ( 'NONE',  ( 1.000000000000000000, 0.0000000000000000000, -0.0000000000000000000 ) ) ;
#83 = APPLICATION_CONTEXT ( 'configuration controlled 3d designs of mechanical parts and assemblies' ) ;
#84 = APPROVAL_PERSON_ORGANIZATION ( #35, #1, #5 ) ;
#85 = LINE ( 'NONE', #51, #8 ) ;
#86 = UNCERTAINTY_MEASURE_WITH_UNIT (LENGTH_MEASURE( 1.000000000000000100E-005 ), #56, 'distance_accuracy_value', 'NONE');
#87 = APPROVAL_DATE_TIME ( #149, #49 ) ;
#88 = CC_DESIGN_SECURITY_CLASSIFICATION ( #173, ( #64 ) ) ;
#89 = DATE_AND_TIME ( #6, #18 ) ;
#90 = ORIENTED_EDGE ( 'NONE', *, *, #104, .F. ) ;
#91 = ORIENTED_EDGE ( 'NONE', *, *, #139, .T. ) ;
#92 = CC_DESIGN_PERSON_AND_ORGANIZATION_ASSIGNMENT ( #120, #63, ( #64 ) ) ;
#93 = CARTESIAN_POINT ( 'NONE',  ( 0.0000000000000000000, 0.0000000000000000000, 3.000000000000000000 ) ) ;
#94 = DIRECTION ( 'NONE',  ( 1.000000000000000000, 0.0000000000000000000, 0.0000000000000000000 ) ) ;
#95 = DIRECTION ( 'NONE',  ( -0.0000000000000000000, -0.0000000000000000000, -1.000000000000000000 ) ) ;
#96 = CALENDAR_DATE ( 2017, 6, 9 ) ;
#97 = EDGE_LOOP ( 'NONE', ( #47, #16, #13, #162 ) ) ;
#98 = DATE_TIME_ROLE ( 'creation_date' ) ;
#99 = APPROVAL_STATUS ( 'not_yet_approved' ) ;
#100 = FACE_OUTER_BOUND ( 'NONE', #97, .T. ) ;
#101 = APPROVAL_DATE_TIME ( #89, #131 ) ;
#102 = APPROVAL_DATE_TIME ( #144, #1 ) ;
#103 = ORIENTED_EDGE ( 'NONE', *, *, #148, .F. ) ;
#104 = EDGE_CURVE ( 'NONE', #31, #105, #133, .T. ) ;
#105 = VERTEX_POINT ( 'NONE', #123 ) ;
#106 = PERSON_AND_ORGANIZATION ( #152, #119 ) ;
#107 = APPLICATION_PROTOCOL_DEFINITION ( 'international standard', 'config_control_design', 1994, #83 ) ;
#108 = ADVANCED_BREP_SHAPE_REPRESENTATION ( '34429_37015', ( #118, #37 ), #154 ) ;
#109 = CARTESIAN_POINT ( 'NONE',  ( 0.0000000000000000000, 0.0000000000000000000, 3.000000000000000000 ) ) ;
#110 = DIRECTION ( 'NONE',  ( 0.0000000000000000000, 0.0000000000000000000, 1.000000000000000000 ) ) ;
#111 = DATE_AND_TIME ( #48, #7 ) ;
#112 = DIRECTION ( 'NONE',  ( 0.0000000000000000000, 0.0000000000000000000, 1.000000000000000000 ) ) ;
#113 = ADVANCED_FACE ( 'NONE', ( #80 ), #24, .F. ) ;
#114 = ADVANCED_FACE ( 'NONE', ( #135 ), #14, .T. ) ;
#115 = LOCAL_TIME ( 11, 46, 49.00000000000000000, #58 ) ;
#116 = EDGE_CURVE ( 'NONE', #105, #31, #150, .T. ) ;
#117 = CC_DESIGN_APPROVAL ( #131, ( #64 ) ) ;
#118 = MANIFOLD_SOLID_BREP ( 'Boss-Extrude1', #68 ) ;
#119 = ORGANIZATION ( 'UNSPECIFIED', 'UNSPECIFIED', '' ) ;
#120 = PERSON_AND_ORGANIZATION ( #152, #119 ) ;
#121 = ORIENTED_EDGE ( 'NONE', *, *, #116, .T. ) ;
#122 = CARTESIAN_POINT ( 'NONE',  ( 25.00000000000000000, 3.061616997868383000E-015, 3.000000000000000000 ) ) ;
#123 = CARTESIAN_POINT ( 'NONE',  ( -25.00000000000000000, 0.0000000000000000000, 0.0000000000000000000 ) ) ;
#124 = DIRECTION ( 'NONE',  ( -0.0000000000000000000, -0.0000000000000000000, -1.000000000000000000 ) ) ;
#125 = DIRECTION ( 'NONE',  ( 1.000000000000000000, 0.0000000000000000000, 0.0000000000000000000 ) ) ;
#126 = ORIENTED_EDGE ( 'NONE', *, *, #36, .T. ) ;
#127 = DIRECTION ( 'NONE',  ( 1.000000000000000000, 0.0000000000000000000, -0.0000000000000000000 ) ) ;
#128 = PERSON_AND_ORGANIZATION_ROLE ( 'creator' ) ;
#129 = PRODUCT ( '34429_37015', '34429_37015', '', ( #2 ) ) ;
#130 = FACE_OUTER_BOUND ( 'NONE', #28, .T. ) ;
#131 = APPROVAL ( #99, 'UNSPECIFIED' ) ;
#132 = CALENDAR_DATE ( 2017, 6, 9 ) ;
#133 = CIRCLE ( 'NONE', #157, 25.00000000000000000 ) ;
#134 = CARTESIAN_POINT ( 'NONE',  ( 0.0000000000000000000, 0.0000000000000000000, 3.000000000000000000 ) ) ;
#135 = FACE_OUTER_BOUND ( 'NONE', #141, .T. ) ;
#136 = APPROVAL_STATUS ( 'not_yet_approved' ) ;
#137 = DATE_AND_TIME ( #161, #142 ) ;
#138 = CARTESIAN_POINT ( 'NONE',  ( 0.0000000000000000000, 0.0000000000000000000, 3.000000000000000000 ) ) ;
#139 = EDGE_CURVE ( 'NONE', #55, #19, #146, .T. ) ;
#140 = DIRECTION ( 'NONE',  ( 0.0000000000000000000, 0.0000000000000000000, 1.000000000000000000 ) ) ;
#141 = EDGE_LOOP ( 'NONE', ( #165, #91 ) ) ;
#142 = LOCAL_TIME ( 11, 46, 49.00000000000000000, #147 ) ;
#143 = AXIS2_PLACEMENT_3D ( 'NONE', #39, #40, #82 ) ;
#144 = DATE_AND_TIME ( #132, #174 ) ;
#145 = AXIS2_PLACEMENT_3D ( 'NONE', #134, #166, #11 ) ;
#146 = CIRCLE ( 'NONE', #30, 25.00000000000000000 ) ;
#147 = COORDINATED_UNIVERSAL_TIME_OFFSET ( 5, 0, .BEHIND. ) ;
#148 = EDGE_CURVE ( 'NONE', #55, #31, #66, .T. ) ;
#149 = DATE_AND_TIME ( #96, #115 ) ;
#150 = CIRCLE ( 'NONE', #20, 25.00000000000000000 ) ;
#151 = APPLICATION_CONTEXT ( 'configuration controlled 3d designs of mechanical parts and assemblies' ) ;
#152 = PERSON ( 'UNSPECIFIED', 'UNSPECIFIED', 'UNSPECIFIED', ('UNSPECIFIED'), ('UNSPECIFIED'), ('UNSPECIFIED') ) ;
#153 = DIRECTION ( 'NONE',  ( 0.0000000000000000000, 0.0000000000000000000, 1.000000000000000000 ) ) ;
#154 =( GEOMETRIC_REPRESENTATION_CONTEXT ( 3 ) GLOBAL_UNCERTAINTY_ASSIGNED_CONTEXT ( ( #86 ) ) GLOBAL_UNIT_ASSIGNED_CONTEXT ( ( #56, #59, #73 ) ) REPRESENTATION_CONTEXT ( 'NONE', 'WORKASPACE' ) );
#155 = COORDINATED_UNIVERSAL_TIME_OFFSET ( 5, 0, .BEHIND. ) ;
#156 = CARTESIAN_POINT ( 'NONE',  ( 25.00000000000000000, 3.061616997868383000E-015, 3.000000000000000000 ) ) ;
#157 = AXIS2_PLACEMENT_3D ( 'NONE', #167, #110, #27 ) ;
#158 = PERSON_AND_ORGANIZATION_ROLE ( 'classification_officer' ) ;
#159 = DATE_TIME_ROLE ( 'classification_date' ) ;
#160 = EDGE_CURVE ( 'NONE', #19, #55, #170, .T. ) ;
#161 = CALENDAR_DATE ( 2017, 6, 9 ) ;
#162 = ORIENTED_EDGE ( 'NONE', *, *, #36, .F. ) ;
#163 = CC_DESIGN_PERSON_AND_ORGANIZATION_ASSIGNMENT ( #79, #128, ( #64 ) ) ;
#164 = ORIENTED_EDGE ( 'NONE', *, *, #116, .F. ) ;
#165 = ORIENTED_EDGE ( 'NONE', *, *, #160, .T. ) ;
#166 = DIRECTION ( 'NONE',  ( -0.0000000000000000000, -0.0000000000000000000, -1.000000000000000000 ) ) ;
#167 = CARTESIAN_POINT ( 'NONE',  ( 0.0000000000000000000, 0.0000000000000000000, 0.0000000000000000000 ) ) ;
#168 = PERSON_AND_ORGANIZATION_ROLE ( 'creator' ) ;
#169 = CARTESIAN_POINT ( 'NONE',  ( 0.0000000000000000000, 0.0000000000000000000, 3.000000000000000000 ) ) ;
#170 = CIRCLE ( 'NONE', #81, 25.00000000000000000 ) ;
#171 = DIRECTION ( 'NONE',  ( 0.0000000000000000000, 0.0000000000000000000, 1.000000000000000000 ) ) ;
#172 = CARTESIAN_POINT ( 'NONE',  ( 0.0000000000000000000, 0.0000000000000000000, 0.0000000000000000000 ) ) ;
#173 = SECURITY_CLASSIFICATION ( '', '', #29 ) ;
#174 = LOCAL_TIME ( 11, 46, 49.00000000000000000, #38 ) ;
#175 = CYLINDRICAL_SURFACE ( 'NONE', #145, 25.00000000000000000 ) ;
ENDSEC;
END-ISO-10303-21;
