ISO-10303-21;
HEADER;
FILE_DESCRIPTION (( 'STEP AP203' ),
    '1' );
FILE_NAME ('20mm BEAMSPLITTER CUBE TS_13439.step',
    '2020-10-29T14:34:59',
    ( '' ),
    ( '' ),
    'SwSTEP 2.0',
    'SolidWorks 2018',
    '' );
FILE_SCHEMA (( 'CONFIG_CONTROL_DESIGN' ));
ENDSEC;

DATA;
#1 = COORDINATED_UNIVERSAL_TIME_OFFSET ( 5, 0, .BEHIND. ) ;
#2 = EDGE_LOOP ( 'NONE', ( #137, #312, #58, #14 ) ) ;
#3 = SECURITY_CLASSIFICATION_LEVEL ( 'unclassified' ) ;
#4 = COORDINATED_UNIVERSAL_TIME_OFFSET ( 5, 0, .BEHIND. ) ;
#5 = CC_DESIGN_PERSON_AND_ORGANIZATION_ASSIGNMENT ( #319, #318, ( #313 ) ) ;
#6 = COORDINATED_UNIVERSAL_TIME_OFFSET ( 5, 0, .BEHIND. ) ;
#7 = VERTEX_POINT ( 'NONE', #37 ) ;
#8 = CC_DESIGN_DATE_AND_TIME_ASSIGNMENT ( #337, #200, ( #340 ) ) ;
#9 = DIRECTION ( 'NONE',  ( 0.0000000000000000000, -0.0000000000000000000, -1.000000000000000000 ) ) ;
#10 = ADVANCED_FACE ( 'NONE', ( #93 ), #320, .T. ) ;
#11 = PERSON_AND_ORGANIZATION ( #222, #191 ) ;
#12 = CARTESIAN_POINT ( 'NONE',  ( 14.14213562373104693, -1.818507718094545588E-15, 10.00000000000001066 ) ) ;
#13 = CALENDAR_DATE ( 2020, 29, 10 ) ;
#14 = ORIENTED_EDGE ( 'NONE', *, *, #287, .T. ) ;
#15 = CARTESIAN_POINT ( 'NONE',  ( -14.14213562373104693, 3.009265538105056020E-32, 10.00000000000001066 ) ) ;
#16 = CC_DESIGN_SECURITY_CLASSIFICATION ( #243, ( #113 ) ) ;
#17 = APPROVAL ( #116, 'UNSPECIFIED' ) ;
#18 = CARTESIAN_POINT ( 'NONE',  ( 0.0000000000000000000, 0.0000000000000000000, 0.0000000000000000000 ) ) ;
#19 = DATE_AND_TIME ( #203, #70 ) ;
#20 = COORDINATED_UNIVERSAL_TIME_OFFSET ( 5, 0, .BEHIND. ) ;
#21 = CC_DESIGN_DATE_AND_TIME_ASSIGNMENT ( #170, #67, ( #30 ) ) ;
#22 = VECTOR ( 'NONE', #185, 999.9999999999998863 ) ;
#23 = CALENDAR_DATE ( 2020, 29, 10 ) ;
#24 = CC_DESIGN_APPROVAL ( #189, ( #84 ) ) ;
#25 = APPROVAL_DATE_TIME ( #297, #173 ) ;
#26 = UNCERTAINTY_MEASURE_WITH_UNIT (LENGTH_MEASURE( 1.000000000000000082E-05 ), #280, 'distance_accuracy_value', 'NONE');
#27 = CALENDAR_DATE ( 2020, 29, 10 ) ;
#28 = EDGE_LOOP ( 'NONE', ( #230, #322, #138, #217 ) ) ;
#29 = APPROVAL_STATUS ( 'not_yet_approved' ) ;
#30 = SECURITY_CLASSIFICATION ( '', '', #296 ) ;
#31 = COORDINATED_UNIVERSAL_TIME_OFFSET ( 5, 0, .BEHIND. ) ;
#32 = PERSON_AND_ORGANIZATION_ROLE ( 'creator' ) ;
#33 = COORDINATED_UNIVERSAL_TIME_OFFSET ( 5, 0, .BEHIND. ) ;
#34 = SHAPE_DEFINITION_REPRESENTATION ( #254, #264 ) ;
#35 = EDGE_CURVE ( 'NONE', #196, #284, #271, .T. ) ;
#36 = ORIENTED_EDGE ( 'NONE', *, *, #261, .F. ) ;
#37 = CARTESIAN_POINT ( 'NONE',  ( -14.14213562373104693, 3.009265538105056020E-32, 10.00000000000001066 ) ) ;
#38 = APPROVAL_ROLE ( '' ) ;
#39 = EDGE_LOOP ( 'NONE', ( #36, #207, #278 ) ) ;
#40 = DIRECTION ( 'NONE',  ( -1.000000000000000222, 0.0000000000000000000, 5.551115123125782702E-17 ) ) ;
#41 = AXIS2_PLACEMENT_3D ( 'NONE', #100, #152, #236 ) ;
#42 = DIRECTION ( 'NONE',  ( 0.7071067811865515695, 0.7071067811865434649, 0.0000000000000000000 ) ) ;
#43 = PRODUCT_DEFINITION_SHAPE ( 'NONE', 'NONE',  #73 ) ;
#44 = COORDINATED_UNIVERSAL_TIME_OFFSET ( 5, 0, .BEHIND. ) ;
#45 = DIRECTION ( 'NONE',  ( 1.000000000000000000, 0.0000000000000000000, 0.0000000000000000000 ) ) ;
#46 = LOCAL_TIME ( 10, 34, 59.00000000000000000, #114 ) ;
#47 = LINE ( 'NONE', #104, #182 ) ;
#48 = CARTESIAN_POINT ( 'NONE',  ( -14.14213562373104693, 3.009265538105056020E-32, 10.00000000000001066 ) ) ;
#49 = AXIS2_PLACEMENT_3D ( 'NONE', #295, #356, #98 ) ;
#50 = ORGANIZATION ( 'NAUO-ORG1', 'UNSPECIFIED', 'UNSPECIFIED' ) ;
#51 = LINE ( 'NONE', #15, #310 ) ;
#52 = CC_DESIGN_SECURITY_CLASSIFICATION ( #30, ( #361 ) ) ;
#53 = COORDINATED_UNIVERSAL_TIME_OFFSET ( 5, 0, .BEHIND. ) ;
#54 = LINE ( 'NONE', #213, #187 ) ;
#55 = EDGE_CURVE ( 'NONE', #284, #77, #115, .T. ) ;
#56 = FACE_OUTER_BOUND ( 'NONE', #39, .T. ) ;
#57 = CARTESIAN_POINT ( 'NONE',  ( -14.14213562373104693, 3.009265538105056020E-32, -10.00000000000001066 ) ) ;
#58 = ORIENTED_EDGE ( 'NONE', *, *, #134, .F. ) ;
#59 = APPLICATION_CONTEXT ( 'configuration controlled 3d designs of mechanical parts and assemblies' ) ;
#60 = MECHANICAL_CONTEXT ( 'NONE', #59, 'mechanical' ) ;
#61 = CALENDAR_DATE ( 2020, 29, 10 ) ;
#62 = DIRECTION ( 'NONE',  ( 1.000000000000000000, 0.0000000000000000000, 0.0000000000000000000 ) ) ;
#63 = SECURITY_CLASSIFICATION_LEVEL ( 'unclassified' ) ;
#64 = LOCAL_TIME ( 10, 34, 59.00000000000000000, #355 ) ;
#65 = ORIENTED_EDGE ( 'NONE', *, *, #139, .T. ) ;
#66 = AXIS2_PLACEMENT_3D ( 'NONE', #101, #299, #40 ) ;
#67 = DATE_TIME_ROLE ( 'classification_date' ) ;
#68 = PLANE ( 'NONE',  #49 ) ;
#69 = COORDINATED_UNIVERSAL_TIME_OFFSET ( 5, 0, .BEHIND. ) ;
#70 = LOCAL_TIME ( 10, 34, 59.00000000000000000, #1 ) ;
#71 = ORIENTED_EDGE ( 'NONE', *, *, #250, .T. ) ;
#72 = CARTESIAN_POINT ( 'NONE',  ( 0.0000000000000000000, 0.0000000000000000000, 0.0000000000000000000 ) ) ;
#73 = PRODUCT_DEFINITION ( 'UNKNOWN', '', #113, #83 ) ;
#74 = DIRECTION ( 'NONE',  ( 0.0000000000000000000, 0.0000000000000000000, 1.000000000000000000 ) ) ;
#75 = PERSON_AND_ORGANIZATION ( #169, #321 ) ;
#76 = VERTEX_POINT ( 'NONE', #157 ) ;
#77 = VERTEX_POINT ( 'NONE', #57 ) ;
#78 = LOCAL_TIME ( 10, 34, 59.00000000000000000, #125 ) ;
#79 = CC_DESIGN_PERSON_AND_ORGANIZATION_ASSIGNMENT ( #75, #256, ( #73 ) ) ;
#80 = PRODUCT ( '20mm BEAMSPLITTER CUBE TS_13439', '20mm BEAMSPLITTER CUBE TS_13439', '', ( #144 ) ) ;
#81 = APPROVAL_DATE_TIME ( #87, #189 ) ;
#82 = LOCAL_TIME ( 10, 34, 59.00000000000000000, #20 ) ;
#83 = DESIGN_CONTEXT ( 'detailed design', #86, 'design' ) ;
#84 = PRODUCT_DEFINITION ( 'UNKNOWN', '', #313, #268 ) ;
#85 = LOCAL_TIME ( 10, 34, 59.00000000000000000, #31 ) ;
#86 = APPLICATION_CONTEXT ( 'configuration controlled 3d designs of mechanical parts and assemblies' ) ;
#87 = DATE_AND_TIME ( #291, #82 ) ;
#88 = DATE_TIME_ROLE ( 'creation_date' ) ;
#89 = APPROVAL_STATUS ( 'not_yet_approved' ) ;
#90 = PRODUCT_RELATED_PRODUCT_CATEGORY ( 'detail', '', ( #80 ) ) ;
#91 = LOCAL_TIME ( 10, 34, 59.00000000000000000, #4 ) ;
#92 = APPROVAL_PERSON_ORGANIZATION ( #239, #189, #285 ) ;
#93 = FACE_OUTER_BOUND ( 'NONE', #156, .T. ) ;
#94 = PERSON_AND_ORGANIZATION_ROLE ( 'design_supplier' ) ;
#95 =( REPRESENTATION_RELATIONSHIP ('NONE','NONE', #264, #260 ) REPRESENTATION_RELATIONSHIP_WITH_TRANSFORMATION ( #181 )SHAPE_REPRESENTATION_RELATIONSHIP( ) );
#96 = CALENDAR_DATE ( 2020, 29, 10 ) ;
#97 = LOCAL_TIME ( 10, 34, 59.00000000000000000, #53 ) ;
#98 = DIRECTION ( 'NONE',  ( 1.000000000000000000, 0.0000000000000000000, 0.0000000000000000000 ) ) ;
#99 = CC_DESIGN_DATE_AND_TIME_ASSIGNMENT ( #270, #88, ( #73 ) ) ;
#100 = CARTESIAN_POINT ( 'NONE',  ( 0.0000000000000000000, 0.0000000000000000000, 0.0000000000000000000 ) ) ;
#101 = CARTESIAN_POINT ( 'NONE',  ( 0.0000000000000000000, 0.0000000000000000000, 0.0000000000000000000 ) ) ;
#102 = APPROVAL_DATE_TIME ( #233, #194 ) ;
#103 = SHAPE_DEFINITION_REPRESENTATION ( #43, #260 ) ;
#104 = CARTESIAN_POINT ( 'NONE',  ( 14.14213562373104693, -1.818507718094545588E-15, -10.00000000000001066 ) ) ;
#105 = CC_DESIGN_APPROVAL ( #173, ( #275 ) ) ;
#106 = CC_DESIGN_PERSON_AND_ORGANIZATION_ASSIGNMENT ( #238, #288, ( #340 ) ) ;
#107 = CALENDAR_DATE ( 2020, 29, 10 ) ;
#108 = APPROVAL_PERSON_ORGANIZATION ( #326, #145, #38 ) ;
#109 = CC_DESIGN_APPROVAL ( #158, ( #113 ) ) ;
#110 = SHAPE_REPRESENTATION_RELATIONSHIP ( 'NONE' , 'NONE' ,  #260, #292 ) ;
#111 = DATE_TIME_ROLE ( 'creation_date' ) ;
#112 = APPROVAL_STATUS ( 'not_yet_approved' ) ;
#113 = PRODUCT_DEFINITION_FORMATION_WITH_SPECIFIED_SOURCE ( 'ANY', '', #358, .NOT_KNOWN. ) ;
#114 = COORDINATED_UNIVERSAL_TIME_OFFSET ( 5, 0, .BEHIND. ) ;
#115 = LINE ( 'NONE', #263, #131 ) ;
#116 = APPROVAL_STATUS ( 'not_yet_approved' ) ;
#117 = UNCERTAINTY_MEASURE_WITH_UNIT (LENGTH_MEASURE( 1.000000000000000082E-05 ), #267, 'distance_accuracy_value', 'NONE');
#118 = EDGE_CURVE ( 'NONE', #7, #76, #252, .T. ) ;
#119 = DATE_AND_TIME ( #240, #85 ) ;
#120 = VECTOR ( 'NONE', #123, 1000.000000000000000 ) ;
#121 = ADVANCED_FACE ( 'NONE', ( #56 ), #68, .F. ) ;
#122 = CARTESIAN_POINT ( 'NONE',  ( 8.700747372918609639E-17, 14.14213562373087640, 10.00000000000001066 ) ) ;
#123 = DIRECTION ( 'NONE',  ( 0.0000000000000000000, -0.0000000000000000000, -1.000000000000000000 ) ) ;
#124 = CARTESIAN_POINT ( 'NONE',  ( 8.700747372918609639E-17, 14.14213562373087640, 10.00000000000001066 ) ) ;
#125 = COORDINATED_UNIVERSAL_TIME_OFFSET ( 5, 0, .BEHIND. ) ;
#126 = CARTESIAN_POINT ( 'NONE',  ( -14.14213562373104693, 3.009265538105056020E-32, 10.00000000000001066 ) ) ;
#127 = CC_DESIGN_PERSON_AND_ORGANIZATION_ASSIGNMENT ( #195, #206, ( #243 ) ) ;
#128 = CARTESIAN_POINT ( 'NONE',  ( 14.14213562373104693, -1.818507718094545588E-15, 10.00000000000001066 ) ) ;
#129 = LOCAL_TIME ( 10, 34, 59.00000000000000000, #44 ) ;
#130 = PRODUCT_DEFINITION_SHAPE ( 'NONE', 'NONE',  #360 ) ;
#131 = VECTOR ( 'NONE', #293, 999.9999999999998863 ) ;
#132 = APPROVAL_PERSON_ORGANIZATION ( #11, #339, #234 ) ;
#133 = LOCAL_TIME ( 10, 34, 59.00000000000000000, #6 ) ;
#134 = EDGE_CURVE ( 'NONE', #76, #196, #54, .T. ) ;
#135 = CC_DESIGN_PERSON_AND_ORGANIZATION_ASSIGNMENT ( #244, #208, ( #275 ) ) ;
#136 = PERSON_AND_ORGANIZATION ( #169, #321 ) ;
#137 = ORIENTED_EDGE ( 'NONE', *, *, #261, .T. ) ;
#138 = ORIENTED_EDGE ( 'NONE', *, *, #250, .F. ) ;
#139 = EDGE_CURVE ( 'NONE', #77, #242, #277, .T. ) ;
#140 = APPLICATION_PROTOCOL_DEFINITION ( 'international standard', 'config_control_design', 1994, #86 ) ;
#141 = APPROVAL_PERSON_ORGANIZATION ( #244, #173, #180 ) ;
#142 = PERSON_AND_ORGANIZATION ( #169, #321 ) ;
#143 = APPROVAL_ROLE ( '' ) ;
#144 = MECHANICAL_CONTEXT ( 'NONE', #224, 'mechanical' ) ;
#145 = APPROVAL ( #151, 'UNSPECIFIED' ) ;
#146 = DATE_AND_TIME ( #225, #97 ) ;
#147 = DIRECTION ( 'NONE',  ( 0.0000000000000000000, 0.0000000000000000000, 1.000000000000000000 ) ) ;
#148 = PERSON_AND_ORGANIZATION ( #169, #321 ) ;
#149 = ORIENTED_EDGE ( 'NONE', *, *, #287, .F. ) ;
#150 = APPROVAL_STATUS ( 'not_yet_approved' ) ;
#151 = APPROVAL_STATUS ( 'not_yet_approved' ) ;
#152 = DIRECTION ( 'NONE',  ( 0.0000000000000000000, 0.0000000000000000000, 1.000000000000000000 ) ) ;
#153 = CC_DESIGN_DATE_AND_TIME_ASSIGNMENT ( #119, #350, ( #275 ) ) ;
#154 = LOCAL_TIME ( 10, 34, 59.00000000000000000, #202 ) ;
#155 = PERSON_AND_ORGANIZATION ( #169, #321 ) ;
#156 = EDGE_LOOP ( 'NONE', ( #183, #71, #253 ) ) ;
#157 = CARTESIAN_POINT ( 'NONE',  ( 14.14213562373104693, -1.818507718094545588E-15, 10.00000000000001066 ) ) ;
#158 = APPROVAL ( #112, 'UNSPECIFIED' ) ;
#159 = DIRECTION ( 'NONE',  ( 0.0000000000000000000, 0.0000000000000000000, 1.000000000000000000 ) ) ;
#160 =( NAMED_UNIT ( * ) SI_UNIT ( $, .STERADIAN. ) SOLID_ANGLE_UNIT ( ) );
#161 = PLANE ( 'NONE',  #357 ) ;
#162 = DATE_AND_TIME ( #23, #91 ) ;
#163 = AXIS2_PLACEMENT_3D ( 'NONE', #179, #147, #347 ) ;
#164 = COORDINATED_UNIVERSAL_TIME_OFFSET ( 5, 0, .BEHIND. ) ;
#165 = CLOSED_SHELL ( 'NONE', ( #231, #342, #344, #10, #121 ) ) ;
#166 = DATE_AND_TIME ( #27, #332 ) ;
#167 = FACE_OUTER_BOUND ( 'NONE', #28, .T. ) ;
#168 = CC_DESIGN_APPROVAL ( #145, ( #243 ) ) ;
#169 = PERSON ( 'UNSPECIFIED', 'UNSPECIFIED', 'UNSPECIFIED', ('UNSPECIFIED'), ('UNSPECIFIED'), ('UNSPECIFIED') ) ;
#170 = DATE_AND_TIME ( #107, #341 ) ;
#171 = PERSON_AND_ORGANIZATION_ROLE ( 'creator' ) ;
#172 = APPROVAL_DATE_TIME ( #146, #336 ) ;
#173 = APPROVAL ( #150, 'UNKNOWN' ) ;
#174 = APPROVAL_STATUS ( 'not_yet_approved' ) ;
#175 = APPLICATION_PROTOCOL_DEFINITION ( 'international standard', 'config_control_design', 1994, #224 ) ;
#176 = CC_DESIGN_PERSON_AND_ORGANIZATION_ASSIGNMENT ( #286, #345, ( #113 ) ) ;
#177 = APPROVAL_PERSON_ORGANIZATION ( #306, #336, #226 ) ;
#178 = LINE ( 'NONE', #122, #22 ) ;
#179 = CARTESIAN_POINT ( 'NONE',  ( 0.0000000000000000000, 0.0000000000000000000, 10.00000000000001066 ) ) ;
#180 = APPROVAL_ROLE ( '' ) ;
#181 = ITEM_DEFINED_TRANSFORMATION ( 'NONE', 'NONE', #66,  #41 ) ;
#182 = VECTOR ( 'NONE', #331, 1000.000000000000000 ) ;
#183 = ORIENTED_EDGE ( 'NONE', *, *, #134, .T. ) ;
#184 = CARTESIAN_POINT ( 'NONE',  ( 14.14213562373104693, -1.818507718094545588E-15, -10.00000000000001066 ) ) ;
#185 = DIRECTION ( 'NONE',  ( -0.7071067811865515695, -0.7071067811865435759, 0.0000000000000000000 ) ) ;
#186 = DATE_AND_TIME ( #258, #46 ) ;
#187 = VECTOR ( 'NONE', #354, 1000.000000000000000 ) ;
#188 = DIRECTION ( 'NONE',  ( 6.429395695523596264E-17, 1.000000000000000000, 0.0000000000000000000 ) ) ;
#189 = APPROVAL ( #89, 'UNSPECIFIED' ) ;
#190 = CARTESIAN_POINT ( 'NONE',  ( -14.14213562373104693, 3.009265538105056020E-32, -10.00000000000001066 ) ) ;
#191 = ORGANIZATION ( 'NAUO-ORG2', 'UNSPECIFIED', 'UNSPECIFIED' ) ;
#192 =( NAMED_UNIT ( * ) PLANE_ANGLE_UNIT ( ) SI_UNIT ( $, .RADIAN. ) );
#193 =( NAMED_UNIT ( * ) SI_UNIT ( $, .STERADIAN. ) SOLID_ANGLE_UNIT ( ) );
#194 = APPROVAL ( #174, 'UNSPECIFIED' ) ;
#195 = PERSON_AND_ORGANIZATION ( #169, #321 ) ;
#196 = VERTEX_POINT ( 'NONE', #209 ) ;
#197 = CC_DESIGN_APPROVAL ( #339, ( #30 ) ) ;
#198 = CALENDAR_DATE ( 2020, 29, 10 ) ;
#199 =( GEOMETRIC_REPRESENTATION_CONTEXT ( 3 ) GLOBAL_UNCERTAINTY_ASSIGNED_CONTEXT ( ( #26 ) ) GLOBAL_UNIT_ASSIGNED_CONTEXT ( ( #280, #192, #193 ) ) REPRESENTATION_CONTEXT ( 'NONE', 'WORKASPACE' ) );
#200 = DATE_TIME_ROLE ( 'classification_date' ) ;
#201 = APPROVAL_ROLE ( '' ) ;
#202 = COORDINATED_UNIVERSAL_TIME_OFFSET ( 5, 0, .BEHIND. ) ;
#203 = CALENDAR_DATE ( 2020, 29, 10 ) ;
#204 = PRODUCT_RELATED_PRODUCT_CATEGORY ( 'detail', '', ( #358 ) ) ;
#205 = CC_DESIGN_DATE_AND_TIME_ASSIGNMENT ( #162, #111, ( #84 ) ) ;
#206 = PERSON_AND_ORGANIZATION_ROLE ( 'classification_officer' ) ;
#207 = ORIENTED_EDGE ( 'NONE', *, *, #139, .F. ) ;
#208 = PERSON_AND_ORGANIZATION_ROLE ( 'classification_officer' ) ;
#209 = CARTESIAN_POINT ( 'NONE',  ( 8.700747372918609639E-17, 14.14213562373087640, 10.00000000000001066 ) ) ;
#210 = DIRECTION ( 'NONE',  ( 0.7071067811865434649, -0.7071067811865515695, 0.0000000000000000000 ) ) ;
#211 = APPROVAL_PERSON_ORGANIZATION ( #221, #17, #317 ) ;
#212 = AXIS2_PLACEMENT_3D ( 'NONE', #124, #210, #42 ) ;
#213 = CARTESIAN_POINT ( 'NONE',  ( 14.14213562373104693, -1.818507718094545588E-15, 10.00000000000001066 ) ) ;
#214 = PLANE ( 'NONE',  #353 ) ;
#215 = DATE_AND_TIME ( #61, #133 ) ;
#216 = VECTOR ( 'NONE', #269, 1000.000000000000000 ) ;
#217 = ORIENTED_EDGE ( 'NONE', *, *, #35, .T. ) ;
#218 = AXIS2_PLACEMENT_3D ( 'NONE', #18, #159, #45 ) ;
#219 = CONTEXT_DEPENDENT_SHAPE_REPRESENTATION ( #352, #130 ) ;
#220 = CALENDAR_DATE ( 2020, 29, 10 ) ;
#221 = PERSON_AND_ORGANIZATION ( #169, #321 ) ;
#222 = PERSON ( 'NAUO-PER2', 'UNSPECIFIED', 'UNSPECIFIED', ('UNSPECIFIED'), ('UNSPECIFIED'), ('UNSPECIFIED') ) ;
#223 = PERSON_AND_ORGANIZATION_ROLE ( 'design_owner' ) ;
#224 = APPLICATION_CONTEXT ( 'configuration controlled 3d designs of mechanical parts and assemblies' ) ;
#225 = CALENDAR_DATE ( 2020, 29, 10 ) ;
#226 = APPROVAL_ROLE ( '' ) ;
#227 = CC_DESIGN_PERSON_AND_ORGANIZATION_ASSIGNMENT ( #136, #94, ( #113 ) ) ;
#228 = CARTESIAN_POINT ( 'NONE',  ( 8.700747372918609639E-17, 14.14213562373087640, 10.00000000000001066 ) ) ;
#229 = APPROVAL_DATE_TIME ( #166, #145 ) ;
#230 = ORIENTED_EDGE ( 'NONE', *, *, #55, .T. ) ;
#231 = ADVANCED_FACE ( 'NONE', ( #282 ), #214, .F. ) ;
#232 = CARTESIAN_POINT ( 'NONE',  ( 0.0000000000000000000, 0.0000000000000000000, 0.0000000000000000000 ) ) ;
#233 = DATE_AND_TIME ( #281, #64 ) ;
#234 = APPROVAL_ROLE ( '' ) ;
#235 = DIRECTION ( 'NONE',  ( 0.7071067811865514585, -0.7071067811865434649, 0.0000000000000000000 ) ) ;
#236 = DIRECTION ( 'NONE',  ( 1.000000000000000000, 0.0000000000000000000, 0.0000000000000000000 ) ) ;
#237 = DIRECTION ( 'NONE',  ( 0.0000000000000000000, -0.0000000000000000000, -1.000000000000000000 ) ) ;
#238 = PERSON_AND_ORGANIZATION ( #169, #321 ) ;
#239 = PERSON_AND_ORGANIZATION ( #169, #321 ) ;
#240 = CALENDAR_DATE ( 2020, 29, 10 ) ;
#241 = APPROVAL_DATE_TIME ( #215, #17 ) ;
#242 = VERTEX_POINT ( 'NONE', #184 ) ;
#243 = SECURITY_CLASSIFICATION ( '', '', #63 ) ;
#244 = PERSON_AND_ORGANIZATION ( #249, #50 ) ;
#245 = ITEM_DEFINED_TRANSFORMATION ( 'NONE', 'NONE', #308,  #41 ) ;
#246 = VECTOR ( 'NONE', #9, 1000.000000000000000 ) ;
#247 = CC_DESIGN_APPROVAL ( #336, ( #340 ) ) ;
#248 = MANIFOLD_SOLID_BREP ( 'Boss-Extrude1', #165 ) ;
#249 = PERSON ( 'NAUO-PER1', 'UNSPECIFIED', 'UNSPECIFIED', ('UNSPECIFIED'), ('UNSPECIFIED'), ('UNSPECIFIED') ) ;
#250 = EDGE_CURVE ( 'NONE', #196, #7, #178, .T. ) ;
#251 = APPLICATION_PROTOCOL_DEFINITION ( 'international standard', 'config_control_design', 1994, #59 ) ;
#252 = LINE ( 'NONE', #126, #338 ) ;
#253 = ORIENTED_EDGE ( 'NONE', *, *, #118, .T. ) ;
#254 = PRODUCT_DEFINITION_SHAPE ( 'NONE', 'NONE',  #84 ) ;
#255 = PERSON_AND_ORGANIZATION_ROLE ( 'design_owner' ) ;
#256 = PERSON_AND_ORGANIZATION_ROLE ( 'creator' ) ;
#257 = APPROVAL_DATE_TIME ( #19, #158 ) ;
#258 = CALENDAR_DATE ( 2020, 29, 10 ) ;
#259 = FACE_OUTER_BOUND ( 'NONE', #265, .T. ) ;
#260 = SHAPE_REPRESENTATION ( '20x20 Right Angle Prism Master', ( #41 ), #311 ) ;
#261 = EDGE_CURVE ( 'NONE', #242, #284, #47, .T. ) ;
#262 = APPROVAL_DATE_TIME ( #315, #339 ) ;
#263 = CARTESIAN_POINT ( 'NONE',  ( 8.700747372918609639E-17, 14.14213562373087640, -10.00000000000001066 ) ) ;
#264 = SHAPE_REPRESENTATION ( '20mm BEAMSPLITTER CUBE TS_13439', ( #279, #308, #66 ), #199 ) ;
#265 = EDGE_LOOP ( 'NONE', ( #65, #149, #333, #307 ) ) ;
#266 = SECURITY_CLASSIFICATION_LEVEL ( 'unclassified' ) ;
#267 =( LENGTH_UNIT ( ) NAMED_UNIT ( * ) SI_UNIT ( .MILLI., .METRE. ) );
#268 = DESIGN_CONTEXT ( 'detailed design', #314, 'design' ) ;
#269 = DIRECTION ( 'NONE',  ( 1.000000000000000000, -6.429395695523596264E-17, 0.0000000000000000000 ) ) ;
#270 = DATE_AND_TIME ( #220, #78 ) ;
#271 = LINE ( 'NONE', #228, #246 ) ;
#272 = CC_DESIGN_DATE_AND_TIME_ASSIGNMENT ( #186, #325, ( #243 ) ) ;
#273 = DIRECTION ( 'NONE',  ( 1.000000000000000000, 0.0000000000000000000, 0.0000000000000000000 ) ) ;
#274 = DIRECTION ( 'NONE',  ( 1.000000000000000000, -6.429395695523596264E-17, 0.0000000000000000000 ) ) ;
#275 = SECURITY_CLASSIFICATION ( '', '', #266 ) ;
#276 = CC_DESIGN_SECURITY_CLASSIFICATION ( #275, ( #360 ) ) ;
#277 = LINE ( 'NONE', #190, #216 ) ;
#278 = ORIENTED_EDGE ( 'NONE', *, *, #55, .F. ) ;
#279 = AXIS2_PLACEMENT_3D ( 'NONE', #232, #348, #62 ) ;
#280 =( LENGTH_UNIT ( ) NAMED_UNIT ( * ) SI_UNIT ( .MILLI., .METRE. ) );
#281 = CALENDAR_DATE ( 2020, 29, 10 ) ;
#282 = FACE_OUTER_BOUND ( 'NONE', #2, .T. ) ;
#283 = CC_DESIGN_APPROVAL ( #17, ( #313 ) ) ;
#284 = VERTEX_POINT ( 'NONE', #301 ) ;
#285 = APPROVAL_ROLE ( '' ) ;
#286 = PERSON_AND_ORGANIZATION ( #169, #321 ) ;
#287 = EDGE_CURVE ( 'NONE', #76, #242, #303, .T. ) ;
#288 = PERSON_AND_ORGANIZATION_ROLE ( 'classification_officer' ) ;
#289 = CC_DESIGN_PERSON_AND_ORGANIZATION_ASSIGNMENT ( #298, #255, ( #358 ) ) ;
#290 = APPROVAL_PERSON_ORGANIZATION ( #142, #158, #143 ) ;
#291 = CALENDAR_DATE ( 2020, 29, 10 ) ;
#292 = ADVANCED_BREP_SHAPE_REPRESENTATION ( '', ( #248, #41 ), #311 ) ;
#293 = DIRECTION ( 'NONE',  ( -0.7071067811865515695, -0.7071067811865435759, 0.0000000000000000000 ) ) ;
#294 = CC_DESIGN_PERSON_AND_ORGANIZATION_ASSIGNMENT ( #302, #32, ( #84 ) ) ;
#295 = CARTESIAN_POINT ( 'NONE',  ( 0.0000000000000000000, 0.0000000000000000000, -10.00000000000001066 ) ) ;
#296 = SECURITY_CLASSIFICATION_LEVEL ( 'unclassified' ) ;
#297 = DATE_AND_TIME ( #96, #129 ) ;
#298 = PERSON_AND_ORGANIZATION ( #169, #321 ) ;
#299 = DIRECTION ( 'NONE',  ( 5.551115123125782702E-17, 0.0000000000000000000, 1.000000000000000222 ) ) ;
#300 = CC_DESIGN_PERSON_AND_ORGANIZATION_ASSIGNMENT ( #11, #323, ( #30 ) ) ;
#301 = CARTESIAN_POINT ( 'NONE',  ( 8.700747372918609639E-17, 14.14213562373087640, -10.00000000000001066 ) ) ;
#302 = PERSON_AND_ORGANIZATION ( #169, #321 ) ;
#303 = LINE ( 'NONE', #128, #120 ) ;
#304 = EDGE_CURVE ( 'NONE', #7, #77, #51, .T. ) ;
#305 = PRODUCT_DEFINITION_SHAPE ( 'NONE', 'NONE',  #361 ) ;
#306 = PERSON_AND_ORGANIZATION ( #169, #321 ) ;
#307 = ORIENTED_EDGE ( 'NONE', *, *, #304, .T. ) ;
#308 = AXIS2_PLACEMENT_3D ( 'NONE', #72, #74, #273 ) ;
#309 = PERSON_AND_ORGANIZATION ( #169, #321 ) ;
#310 = VECTOR ( 'NONE', #237, 1000.000000000000000 ) ;
#311 =( GEOMETRIC_REPRESENTATION_CONTEXT ( 3 ) GLOBAL_UNCERTAINTY_ASSIGNED_CONTEXT ( ( #117 ) ) GLOBAL_UNIT_ASSIGNED_CONTEXT ( ( #267, #329, #160 ) ) REPRESENTATION_CONTEXT ( 'NONE', 'WORKASPACE' ) );
#312 = ORIENTED_EDGE ( 'NONE', *, *, #35, .F. ) ;
#313 = PRODUCT_DEFINITION_FORMATION_WITH_SPECIFIED_SOURCE ( 'ANY', '', #80, .NOT_KNOWN. ) ;
#314 = APPLICATION_CONTEXT ( 'configuration controlled 3d designs of mechanical parts and assemblies' ) ;
#315 = DATE_AND_TIME ( #198, #154 ) ;
#316 = LOCAL_TIME ( 10, 34, 59.00000000000000000, #164 ) ;
#317 = APPROVAL_ROLE ( '' ) ;
#318 = PERSON_AND_ORGANIZATION_ROLE ( 'design_supplier' ) ;
#319 = PERSON_AND_ORGANIZATION ( #169, #321 ) ;
#320 = PLANE ( 'NONE',  #163 ) ;
#321 = ORGANIZATION ( 'UNSPECIFIED', 'UNSPECIFIED', '' ) ;
#322 = ORIENTED_EDGE ( 'NONE', *, *, #304, .F. ) ;
#323 = PERSON_AND_ORGANIZATION_ROLE ( 'classification_officer' ) ;
#324 = CC_DESIGN_PERSON_AND_ORGANIZATION_ASSIGNMENT ( #309, #171, ( #313 ) ) ;
#325 = DATE_TIME_ROLE ( 'classification_date' ) ;
#326 = PERSON_AND_ORGANIZATION ( #169, #321 ) ;
#327 = APPROVAL_STATUS ( 'not_yet_approved' ) ;
#328 = DIRECTION ( 'NONE',  ( -1.000000000000000000, 6.429395695523596264E-17, 0.0000000000000000000 ) ) ;
#329 =( NAMED_UNIT ( * ) PLANE_ANGLE_UNIT ( ) SI_UNIT ( $, .RADIAN. ) );
#330 = CC_DESIGN_SECURITY_CLASSIFICATION ( #340, ( #313 ) ) ;
#331 = DIRECTION ( 'NONE',  ( -0.7071067811865515695, 0.7071067811865435759, 0.0000000000000000000 ) ) ;
#332 = LOCAL_TIME ( 10, 34, 59.00000000000000000, #33 ) ;
#333 = ORIENTED_EDGE ( 'NONE', *, *, #118, .F. ) ;
#334 = PLANE ( 'NONE',  #212 ) ;
#335 = CC_DESIGN_APPROVAL ( #194, ( #73 ) ) ;
#336 = APPROVAL ( #29, 'UNSPECIFIED' ) ;
#337 = DATE_AND_TIME ( #13, #316 ) ;
#338 = VECTOR ( 'NONE', #274, 1000.000000000000000 ) ;
#339 = APPROVAL ( #327, 'UNKNOWN' ) ;
#340 = SECURITY_CLASSIFICATION ( '', '', #3 ) ;
#341 = LOCAL_TIME ( 10, 34, 59.00000000000000000, #69 ) ;
#342 = ADVANCED_FACE ( 'NONE', ( #167 ), #334, .F. ) ;
#343 = APPLICATION_PROTOCOL_DEFINITION ( 'international standard', 'config_control_design', 1994, #314 ) ;
#344 = ADVANCED_FACE ( 'NONE', ( #259 ), #161, .F. ) ;
#345 = PERSON_AND_ORGANIZATION_ROLE ( 'creator' ) ;
#346 = APPROVAL_PERSON_ORGANIZATION ( #155, #194, #201 ) ;
#347 = DIRECTION ( 'NONE',  ( 1.000000000000000000, 0.0000000000000000000, 0.0000000000000000000 ) ) ;
#348 = DIRECTION ( 'NONE',  ( 0.0000000000000000000, 0.0000000000000000000, 1.000000000000000000 ) ) ;
#349 = CONTEXT_DEPENDENT_SHAPE_REPRESENTATION ( #95, #305 ) ;
#350 = DATE_TIME_ROLE ( 'classification_date' ) ;
#351 = DIRECTION ( 'NONE',  ( -0.7071067811865435759, -0.7071067811865515695, 0.0000000000000000000 ) ) ;
#352 =( REPRESENTATION_RELATIONSHIP ('NONE','NONE', #264, #260 ) REPRESENTATION_RELATIONSHIP_WITH_TRANSFORMATION ( #245 )SHAPE_REPRESENTATION_RELATIONSHIP( ) );
#353 = AXIS2_PLACEMENT_3D ( 'NONE', #12, #351, #235 ) ;
#354 = DIRECTION ( 'NONE',  ( -0.7071067811865515695, 0.7071067811865435759, 0.0000000000000000000 ) ) ;
#355 = COORDINATED_UNIVERSAL_TIME_OFFSET ( 5, 0, .BEHIND. ) ;
#356 = DIRECTION ( 'NONE',  ( 0.0000000000000000000, 0.0000000000000000000, 1.000000000000000000 ) ) ;
#357 = AXIS2_PLACEMENT_3D ( 'NONE', #48, #188, #328 ) ;
#358 = PRODUCT ( '20x20 Right Angle Prism Master', '20x20 Right Angle Prism Master', '', ( #60 ) ) ;
#359 = CC_DESIGN_PERSON_AND_ORGANIZATION_ASSIGNMENT ( #148, #223, ( #80 ) ) ;
#360 = NEXT_ASSEMBLY_USAGE_OCCURRENCE ( 'NAUO1', ' ', ' ', #84, #73, $ ) ;
#361 = NEXT_ASSEMBLY_USAGE_OCCURRENCE ( 'NAUO2', ' ', ' ', #84, #73, $ ) ;
ENDSEC;
END-ISO-10303-21;
