ISO-10303-21;
HEADER;
FILE_DESCRIPTION (( 'STEP AP203' ),
    '1' );
FILE_NAME ('Web Model 39280_39280.step',
    '2018-10-09T13:22:34',
    ( '' ),
    ( '' ),
    'SwSTEP 2.0',
    'SolidWorks 2016',
    '' );
FILE_SCHEMA (( 'CONFIG_CONTROL_DESIGN' ));
ENDSEC;

DATA;
#1 = EDGE_CURVE ( 'NONE', #157, #12, #101, .T. ) ;
#2 = ORGANIZATION ( 'UNSPECIFIED', 'UNSPECIFIED', '' ) ;
#3 = CARTESIAN_POINT ( 'NONE',  ( -19.05000000000000100, 0.0000000000000000000, 0.5000000000000000000 ) ) ;
#4 = DIRECTION ( 'NONE',  ( 1.000000000000000000, 0.0000000000000000000, 0.0000000000000000000 ) ) ;
#5 = CALENDAR_DATE ( 2018, 9, 10 ) ;
#6 = PERSON_AND_ORGANIZATION_ROLE ( 'creator' ) ;
#7 = DIRECTION ( 'NONE',  ( 0.0000000000000000000, 0.0000000000000000000, 1.000000000000000000 ) ) ;
#8 = DIRECTION ( 'NONE',  ( 0.0000000000000000000, 0.0000000000000000000, 1.000000000000000000 ) ) ;
#9 = DIRECTION ( 'NONE',  ( -0.0000000000000000000, -0.0000000000000000000, -1.000000000000000000 ) ) ;
#10 =( GEOMETRIC_REPRESENTATION_CONTEXT ( 3 ) GLOBAL_UNCERTAINTY_ASSIGNED_CONTEXT ( ( #150 ) ) GLOBAL_UNIT_ASSIGNED_CONTEXT ( ( #73, #124, #168 ) ) REPRESENTATION_CONTEXT ( 'NONE', 'WORKASPACE' ) );
#11 = EDGE_CURVE ( 'NONE', #12, #157, #115, .T. ) ;
#12 = VERTEX_POINT ( 'NONE', #3 ) ;
#13 = DIRECTION ( 'NONE',  ( 1.000000000000000000, 0.0000000000000000000, 0.0000000000000000000 ) ) ;
#14 = DATE_AND_TIME ( #5, #140 ) ;
#15 = AXIS2_PLACEMENT_3D ( 'NONE', #57, #98, #142 ) ;
#16 = PERSON_AND_ORGANIZATION_ROLE ( 'classification_officer' ) ;
#17 = DIRECTION ( 'NONE',  ( -1.000000000000000000, 0.0000000000000000000, 0.0000000000000000000 ) ) ;
#18 = EDGE_CURVE ( 'NONE', #163, #173, #53, .T. ) ;
#19 = APPROVAL_STATUS ( 'not_yet_approved' ) ;
#20 = DIRECTION ( 'NONE',  ( 1.000000000000000000, 0.0000000000000000000, -0.0000000000000000000 ) ) ;
#21 = AXIS2_PLACEMENT_3D ( 'NONE', #64, #94, #4 ) ;
#22 = DATE_TIME_ROLE ( 'creation_date' ) ;
#23 = DATE_AND_TIME ( #52, #90 ) ;
#24 = AXIS2_PLACEMENT_3D ( 'NONE', #164, #36, #155 ) ;
#25 = PERSON_AND_ORGANIZATION ( #70, #2 ) ;
#26 = PERSON_AND_ORGANIZATION ( #70, #2 ) ;
#27 = ORIENTED_EDGE ( 'NONE', *, *, #18, .T. ) ;
#28 = LINE ( 'NONE', #112, #104 ) ;
#29 = EDGE_CURVE ( 'NONE', #173, #163, #108, .T. ) ;
#30 = VECTOR ( 'NONE', #9, 1000.000000000000000 ) ;
#31 = EDGE_LOOP ( 'NONE', ( #131, #103 ) ) ;
#32 = APPROVAL_DATE_TIME ( #14, #118 ) ;
#33 = DATE_TIME_ROLE ( 'classification_date' ) ;
#34 = MECHANICAL_CONTEXT ( 'NONE', #55, 'mechanical' ) ;
#35 = DIRECTION ( 'NONE',  ( -0.0000000000000000000, -0.0000000000000000000, -1.000000000000000000 ) ) ;
#36 = DIRECTION ( 'NONE',  ( 0.0000000000000000000, 0.0000000000000000000, 1.000000000000000000 ) ) ;
#37 = PERSON_AND_ORGANIZATION ( #70, #2 ) ;
#38 = APPROVAL_ROLE ( '' ) ;
#39 = AXIS2_PLACEMENT_3D ( 'NONE', #56, #71, #20 ) ;
#40 = EDGE_LOOP ( 'NONE', ( #91, #65 ) ) ;
#41 = CALENDAR_DATE ( 2018, 9, 10 ) ;
#42 = FACE_OUTER_BOUND ( 'NONE', #31, .T. ) ;
#43 = FACE_OUTER_BOUND ( 'NONE', #125, .T. ) ;
#44 = PRODUCT_DEFINITION ( 'UNKNOWN', '', #130, #122 ) ;
#45 = APPROVAL_ROLE ( '' ) ;
#46 = ADVANCED_FACE ( 'NONE', ( #148 ), #59, .T. ) ;
#47 = CARTESIAN_POINT ( 'NONE',  ( -19.05000000000000100, 0.0000000000000000000, -0.5000000000000000000 ) ) ;
#48 = CARTESIAN_POINT ( 'NONE',  ( 0.0000000000000000000, 0.0000000000000000000, -0.5000000000000000000 ) ) ;
#49 = DATE_AND_TIME ( #80, #120 ) ;
#50 = PERSON_AND_ORGANIZATION ( #70, #2 ) ;
#51 = DIRECTION ( 'NONE',  ( 0.0000000000000000000, 0.0000000000000000000, 1.000000000000000000 ) ) ;
#52 = CALENDAR_DATE ( 2018, 9, 10 ) ;
#53 = CIRCLE ( 'NONE', #89, 19.05000000000000100 ) ;
#54 = SHAPE_DEFINITION_REPRESENTATION ( #167, #76 ) ;
#55 = APPLICATION_CONTEXT ( 'configuration controlled 3d designs of mechanical parts and assemblies' ) ;
#56 = CARTESIAN_POINT ( 'NONE',  ( 0.0000000000000000000, 0.0000000000000000000, 0.5000000000000000000 ) ) ;
#57 = CARTESIAN_POINT ( 'NONE',  ( 0.0000000000000000000, 0.0000000000000000000, 0.5000000000000000000 ) ) ;
#58 = ORIENTED_EDGE ( 'NONE', *, *, #79, .F. ) ;
#59 = CYLINDRICAL_SURFACE ( 'NONE', #162, 19.05000000000000100 ) ;
#60 = CC_DESIGN_DATE_AND_TIME_ASSIGNMENT ( #174, #22, ( #44 ) ) ;
#61 = CC_DESIGN_APPROVAL ( #118, ( #44 ) ) ;
#62 = ORIENTED_EDGE ( 'NONE', *, *, #11, .F. ) ;
#63 = APPROVAL_DATE_TIME ( #165, #68 ) ;
#64 = CARTESIAN_POINT ( 'NONE',  ( 0.0000000000000000000, 0.0000000000000000000, 0.5000000000000000000 ) ) ;
#65 = ORIENTED_EDGE ( 'NONE', *, *, #18, .F. ) ;
#66 = PERSON_AND_ORGANIZATION ( #70, #2 ) ;
#67 = SECURITY_CLASSIFICATION_LEVEL ( 'unclassified' ) ;
#68 = APPROVAL ( #141, 'UNSPECIFIED' ) ;
#69 = ADVANCED_FACE ( 'NONE', ( #133 ), #99, .F. ) ;
#70 = PERSON ( 'UNSPECIFIED', 'UNSPECIFIED', 'UNSPECIFIED', ('UNSPECIFIED'), ('UNSPECIFIED'), ('UNSPECIFIED') ) ;
#71 = DIRECTION ( 'NONE',  ( 0.0000000000000000000, 0.0000000000000000000, 1.000000000000000000 ) ) ;
#72 = CC_DESIGN_PERSON_AND_ORGANIZATION_ASSIGNMENT ( #26, #16, ( #135 ) ) ;
#73 =( LENGTH_UNIT ( ) NAMED_UNIT ( * ) SI_UNIT ( .MILLI., .METRE. ) );
#74 = CARTESIAN_POINT ( 'NONE',  ( 0.0000000000000000000, 0.0000000000000000000, -0.5000000000000000000 ) ) ;
#75 = PERSON_AND_ORGANIZATION ( #70, #2 ) ;
#76 = ADVANCED_BREP_SHAPE_REPRESENTATION ( 'Web Model 39280_39280', ( #93, #24 ), #10 ) ;
#77 = CALENDAR_DATE ( 2018, 9, 10 ) ;
#78 = CC_DESIGN_APPROVAL ( #68, ( #130 ) ) ;
#79 = EDGE_CURVE ( 'NONE', #157, #163, #92, .T. ) ;
#80 = CALENDAR_DATE ( 2018, 9, 10 ) ;
#81 = DIRECTION ( 'NONE',  ( 1.000000000000000000, 0.0000000000000000000, -0.0000000000000000000 ) ) ;
#82 = DIRECTION ( 'NONE',  ( 1.000000000000000000, 0.0000000000000000000, 0.0000000000000000000 ) ) ;
#83 = DIRECTION ( 'NONE',  ( 1.000000000000000000, 0.0000000000000000000, 0.0000000000000000000 ) ) ;
#84 = ADVANCED_FACE ( 'NONE', ( #43 ), #109, .T. ) ;
#85 = APPLICATION_CONTEXT ( 'configuration controlled 3d designs of mechanical parts and assemblies' ) ;
#86 = PLANE ( 'NONE',  #39 ) ;
#87 = CLOSED_SHELL ( 'NONE', ( #46, #84, #152, #69 ) ) ;
#88 = CC_DESIGN_SECURITY_CLASSIFICATION ( #135, ( #130 ) ) ;
#89 = AXIS2_PLACEMENT_3D ( 'NONE', #151, #8, #82 ) ;
#90 = LOCAL_TIME ( 9, 22, 34.00000000000000000, #160 ) ;
#91 = ORIENTED_EDGE ( 'NONE', *, *, #29, .F. ) ;
#92 = LINE ( 'NONE', #113, #30 ) ;
#93 = MANIFOLD_SOLID_BREP ( 'Boss-Extrude1', #87 ) ;
#94 = DIRECTION ( 'NONE',  ( 0.0000000000000000000, 0.0000000000000000000, 1.000000000000000000 ) ) ;
#95 = ORIENTED_EDGE ( 'NONE', *, *, #138, .T. ) ;
#96 = LOCAL_TIME ( 9, 22, 34.00000000000000000, #149 ) ;
#97 = PERSON_AND_ORGANIZATION_ROLE ( 'design_owner' ) ;
#98 = DIRECTION ( 'NONE',  ( -0.0000000000000000000, -0.0000000000000000000, -1.000000000000000000 ) ) ;
#99 = PLANE ( 'NONE',  #172 ) ;
#100 = DIRECTION ( 'NONE',  ( -0.0000000000000000000, -0.0000000000000000000, -1.000000000000000000 ) ) ;
#101 = CIRCLE ( 'NONE', #119, 19.05000000000000100 ) ;
#102 = APPLICATION_PROTOCOL_DEFINITION ( 'international standard', 'config_control_design', 1994, #55 ) ;
#103 = ORIENTED_EDGE ( 'NONE', *, *, #1, .T. ) ;
#104 = VECTOR ( 'NONE', #35, 1000.000000000000000 ) ;
#105 = COORDINATED_UNIVERSAL_TIME_OFFSET ( 5, 0, .BEHIND. ) ;
#106 = CC_DESIGN_DATE_AND_TIME_ASSIGNMENT ( #23, #33, ( #135 ) ) ;
#107 = ORIENTED_EDGE ( 'NONE', *, *, #1, .F. ) ;
#108 = CIRCLE ( 'NONE', #147, 19.05000000000000100 ) ;
#109 = CYLINDRICAL_SURFACE ( 'NONE', #15, 19.05000000000000100 ) ;
#110 = APPROVAL_ROLE ( '' ) ;
#111 = CC_DESIGN_APPROVAL ( #146, ( #135 ) ) ;
#112 = CARTESIAN_POINT ( 'NONE',  ( -19.05000000000000100, 0.0000000000000000000, 0.5000000000000000000 ) ) ;
#113 = CARTESIAN_POINT ( 'NONE',  ( 19.05000000000000100, 2.332952152375708000E-015, 0.5000000000000000000 ) ) ;
#114 = DIRECTION ( 'NONE',  ( 0.0000000000000000000, 0.0000000000000000000, 1.000000000000000000 ) ) ;
#115 = CIRCLE ( 'NONE', #21, 19.05000000000000100 ) ;
#116 = PRODUCT_RELATED_PRODUCT_CATEGORY ( 'detail', '', ( #126 ) ) ;
#117 = ORIENTED_EDGE ( 'NONE', *, *, #138, .F. ) ;
#118 = APPROVAL ( #143, 'UNSPECIFIED' ) ;
#119 = AXIS2_PLACEMENT_3D ( 'NONE', #137, #51, #13 ) ;
#120 = LOCAL_TIME ( 9, 22, 34.00000000000000000, #156 ) ;
#121 = CC_DESIGN_PERSON_AND_ORGANIZATION_ASSIGNMENT ( #66, #169, ( #44 ) ) ;
#122 = DESIGN_CONTEXT ( 'detailed design', #85, 'design' ) ;
#123 = APPROVAL_PERSON_ORGANIZATION ( #158, #146, #45 ) ;
#124 =( NAMED_UNIT ( * ) PLANE_ANGLE_UNIT ( ) SI_UNIT ( $, .RADIAN. ) );
#125 = EDGE_LOOP ( 'NONE', ( #58, #62, #95, #139 ) ) ;
#126 = PRODUCT ( 'Web Model 39280_39280', 'Web Model 39280_39280', '', ( #34 ) ) ;
#127 = CARTESIAN_POINT ( 'NONE',  ( 19.05000000000000100, 2.332952152375708000E-015, 0.5000000000000000000 ) ) ;
#128 = APPLICATION_PROTOCOL_DEFINITION ( 'international standard', 'config_control_design', 1994, #85 ) ;
#129 = APPROVAL_PERSON_ORGANIZATION ( #75, #118, #110 ) ;
#130 = PRODUCT_DEFINITION_FORMATION_WITH_SPECIFIED_SOURCE ( 'ANY', '', #126, .NOT_KNOWN. ) ;
#131 = ORIENTED_EDGE ( 'NONE', *, *, #11, .T. ) ;
#132 = COORDINATED_UNIVERSAL_TIME_OFFSET ( 5, 0, .BEHIND. ) ;
#133 = FACE_OUTER_BOUND ( 'NONE', #40, .T. ) ;
#134 = ORIENTED_EDGE ( 'NONE', *, *, #79, .T. ) ;
#135 = SECURITY_CLASSIFICATION ( '', '', #67 ) ;
#136 = PERSON_AND_ORGANIZATION ( #70, #2 ) ;
#137 = CARTESIAN_POINT ( 'NONE',  ( 0.0000000000000000000, 0.0000000000000000000, 0.5000000000000000000 ) ) ;
#138 = EDGE_CURVE ( 'NONE', #12, #173, #28, .T. ) ;
#139 = ORIENTED_EDGE ( 'NONE', *, *, #29, .T. ) ;
#140 = LOCAL_TIME ( 9, 22, 34.00000000000000000, #105 ) ;
#141 = APPROVAL_STATUS ( 'not_yet_approved' ) ;
#142 = DIRECTION ( 'NONE',  ( -1.000000000000000000, 0.0000000000000000000, 0.0000000000000000000 ) ) ;
#143 = APPROVAL_STATUS ( 'not_yet_approved' ) ;
#144 = PERSON_AND_ORGANIZATION_ROLE ( 'design_supplier' ) ;
#145 = APPROVAL_DATE_TIME ( #49, #146 ) ;
#146 = APPROVAL ( #19, 'UNSPECIFIED' ) ;
#147 = AXIS2_PLACEMENT_3D ( 'NONE', #74, #7, #83 ) ;
#148 = FACE_OUTER_BOUND ( 'NONE', #170, .T. ) ;
#149 = COORDINATED_UNIVERSAL_TIME_OFFSET ( 5, 0, .BEHIND. ) ;
#150 = UNCERTAINTY_MEASURE_WITH_UNIT (LENGTH_MEASURE( 1.000000000000000100E-005 ), #73, 'distance_accuracy_value', 'NONE');
#151 = CARTESIAN_POINT ( 'NONE',  ( 0.0000000000000000000, 0.0000000000000000000, -0.5000000000000000000 ) ) ;
#152 = ADVANCED_FACE ( 'NONE', ( #42 ), #86, .T. ) ;
#153 = CARTESIAN_POINT ( 'NONE',  ( 0.0000000000000000000, 0.0000000000000000000, 0.5000000000000000000 ) ) ;
#154 = CC_DESIGN_PERSON_AND_ORGANIZATION_ASSIGNMENT ( #37, #6, ( #130 ) ) ;
#155 = DIRECTION ( 'NONE',  ( 1.000000000000000000, 0.0000000000000000000, 0.0000000000000000000 ) ) ;
#156 = COORDINATED_UNIVERSAL_TIME_OFFSET ( 5, 0, .BEHIND. ) ;
#157 = VERTEX_POINT ( 'NONE', #127 ) ;
#158 = PERSON_AND_ORGANIZATION ( #70, #2 ) ;
#159 = LOCAL_TIME ( 9, 22, 34.00000000000000000, #132 ) ;
#160 = COORDINATED_UNIVERSAL_TIME_OFFSET ( 5, 0, .BEHIND. ) ;
#161 = CC_DESIGN_PERSON_AND_ORGANIZATION_ASSIGNMENT ( #136, #144, ( #130 ) ) ;
#162 = AXIS2_PLACEMENT_3D ( 'NONE', #153, #100, #17 ) ;
#163 = VERTEX_POINT ( 'NONE', #166 ) ;
#164 = CARTESIAN_POINT ( 'NONE',  ( 0.0000000000000000000, 0.0000000000000000000, 0.0000000000000000000 ) ) ;
#165 = DATE_AND_TIME ( #77, #159 ) ;
#166 = CARTESIAN_POINT ( 'NONE',  ( 19.05000000000000100, 2.332952152375708000E-015, -0.5000000000000000000 ) ) ;
#167 = PRODUCT_DEFINITION_SHAPE ( 'NONE', 'NONE',  #44 ) ;
#168 =( NAMED_UNIT ( * ) SI_UNIT ( $, .STERADIAN. ) SOLID_ANGLE_UNIT ( ) );
#169 = PERSON_AND_ORGANIZATION_ROLE ( 'creator' ) ;
#170 = EDGE_LOOP ( 'NONE', ( #107, #134, #27, #117 ) ) ;
#171 = APPROVAL_PERSON_ORGANIZATION ( #25, #68, #38 ) ;
#172 = AXIS2_PLACEMENT_3D ( 'NONE', #48, #114, #81 ) ;
#173 = VERTEX_POINT ( 'NONE', #47 ) ;
#174 = DATE_AND_TIME ( #41, #96 ) ;
#175 = CC_DESIGN_PERSON_AND_ORGANIZATION_ASSIGNMENT ( #50, #97, ( #126 ) ) ;
ENDSEC;
END-ISO-10303-21;
