ISO-10303-21;
HEADER;
FILE_DESCRIPTION (( 'STEP AP203' ),
    '1' );
FILE_NAME ('Web Model 17167_17177.step',
    '2021-08-09T14:32:05',
    ( '' ),
    ( '' ),
    'SwSTEP 2.0',
    'SolidWorks 2018',
    '' );
FILE_SCHEMA (( 'CONFIG_CONTROL_DESIGN' ));
ENDSEC;

DATA;
#1 = AXIS2_PLACEMENT_3D ( 'NONE', #28, #98, #59 ) ;
#2 = ORIENTED_EDGE ( 'NONE', *, *, #150, .T. ) ;
#3 = SECURITY_CLASSIFICATION ( '', '', #87 ) ;
#4 = AXIS2_PLACEMENT_3D ( 'NONE', #96, #117, #69 ) ;
#5 = ORIENTED_EDGE ( 'NONE', *, *, #135, .F. ) ;
#6 = PRODUCT_DEFINITION ( 'UNKNOWN', '', #112, #24 ) ;
#7 = FACE_OUTER_BOUND ( 'NONE', #53, .T. ) ;
#8 = PERSON_AND_ORGANIZATION ( #48, #76 ) ;
#9 = LENGTH_MEASURE_WITH_UNIT ( LENGTH_MEASURE( 0.02539999999999999897 ), #109 );
#10 = CARTESIAN_POINT ( 'NONE',  ( 0.000000000000000000, 0.000000000000000000, 0.03937007874015747977 ) ) ;
#11 = DIRECTION ( 'NONE',  ( 0.000000000000000000, 0.000000000000000000, 1.000000000000000000 ) ) ;
#12 = DIRECTION ( 'NONE',  ( -0.000000000000000000, -0.000000000000000000, -1.000000000000000000 ) ) ;
#13 = APPROVAL ( #108, 'UNSPECIFIED' ) ;
#14 = AXIS2_PLACEMENT_3D ( 'NONE', #60, #86, #85 ) ;
#15 = APPLICATION_CONTEXT ( 'configuration controlled 3d designs of mechanical parts and assemblies' ) ;
#16 =( NAMED_UNIT ( * ) PLANE_ANGLE_UNIT ( ) SI_UNIT ( $, .RADIAN. ) );
#17 = PRODUCT ( 'Web Model 17167_17177', 'Web Model 17167_17177', '', ( #148 ) ) ;
#18 = LOCAL_TIME ( 10, 32, 5.000000000000000000, #104 ) ;
#19 = FACE_OUTER_BOUND ( 'NONE', #78, .T. ) ;
#20 = DATE_TIME_ROLE ( 'creation_date' ) ;
#21 = ORIENTED_EDGE ( 'NONE', *, *, #139, .T. ) ;
#22 = DIRECTION ( 'NONE',  ( 1.000000000000000000, 0.000000000000000000, 0.000000000000000000 ) ) ;
#23 = CC_DESIGN_PERSON_AND_ORGANIZATION_ASSIGNMENT ( #8, #162, ( #6 ) ) ;
#24 = DESIGN_CONTEXT ( 'detailed design', #15, 'design' ) ;
#25 = PERSON_AND_ORGANIZATION ( #48, #76 ) ;
#26 = CIRCLE ( 'NONE', #14, 0.7874015748031496509 ) ;
#27 = PRODUCT_RELATED_PRODUCT_CATEGORY ( 'detail', '', ( #17 ) ) ;
#28 = CARTESIAN_POINT ( 'NONE',  ( 0.000000000000000000, 0.000000000000000000, 0.000000000000000000 ) ) ;
#29 = LOCAL_TIME ( 10, 32, 5.000000000000000000, #129 ) ;
#30 = ORIENTED_EDGE ( 'NONE', *, *, #135, .T. ) ;
#31 = APPROVAL ( #47, 'UNSPECIFIED' ) ;
#32 = DIRECTION ( 'NONE',  ( 1.000000000000000000, 0.000000000000000000, 0.000000000000000000 ) ) ;
#33 = APPROVAL_ROLE ( '' ) ;
#34 =( NAMED_UNIT ( * ) SI_UNIT ( $, .STERADIAN. ) SOLID_ANGLE_UNIT ( ) );
#35 = DATE_AND_TIME ( #151, #18 ) ;
#36 = CALENDAR_DATE ( 2021, 9, 8 ) ;
#37 = ADVANCED_FACE ( 'NONE', ( #46 ), #146, .T. ) ;
#38 = CC_DESIGN_PERSON_AND_ORGANIZATION_ASSIGNMENT ( #147, #149, ( #112 ) ) ;
#39 = DATE_AND_TIME ( #106, #29 ) ;
#40 = DIRECTION ( 'NONE',  ( 1.000000000000000000, 0.000000000000000000, -0.000000000000000000 ) ) ;
#41 = PLANE ( 'NONE',  #70 ) ;
#42 = ORIENTED_EDGE ( 'NONE', *, *, #156, .T. ) ;
#43 =( GEOMETRIC_REPRESENTATION_CONTEXT ( 3 ) GLOBAL_UNCERTAINTY_ASSIGNED_CONTEXT ( ( #167 ) ) GLOBAL_UNIT_ASSIGNED_CONTEXT ( ( #123, #16, #34 ) ) REPRESENTATION_CONTEXT ( 'NONE', 'WORKASPACE' ) );
#44 = AXIS2_PLACEMENT_3D ( 'NONE', #143, #84, #22 ) ;
#45 = AXIS2_PLACEMENT_3D ( 'NONE', #157, #171, #118 ) ;
#46 = FACE_OUTER_BOUND ( 'NONE', #132, .T. ) ;
#47 = APPROVAL_STATUS ( 'not_yet_approved' ) ;
#48 = PERSON ( 'UNSPECIFIED', 'UNSPECIFIED', 'UNSPECIFIED', ('UNSPECIFIED'), ('UNSPECIFIED'), ('UNSPECIFIED') ) ;
#49 = ORIENTED_EDGE ( 'NONE', *, *, #110, .T. ) ;
#50 = APPROVAL ( #101, 'UNSPECIFIED' ) ;
#51 = CIRCLE ( 'NONE', #1, 0.7874015748031496509 ) ;
#52 = SHAPE_DEFINITION_REPRESENTATION ( #113, #79 ) ;
#53 = EDGE_LOOP ( 'NONE', ( #30, #21 ) ) ;
#54 = VECTOR ( 'NONE', #81, 39.37007874015748143 ) ;
#55 = PLANE ( 'NONE',  #120 ) ;
#56 = CARTESIAN_POINT ( 'NONE',  ( 0.000000000000000000, 0.000000000000000000, 0.03937007874015747977 ) ) ;
#57 = VECTOR ( 'NONE', #158, 39.37007874015748143 ) ;
#58 = CC_DESIGN_SECURITY_CLASSIFICATION ( #3, ( #112 ) ) ;
#59 = DIRECTION ( 'NONE',  ( 1.000000000000000000, 0.000000000000000000, 0.000000000000000000 ) ) ;
#60 = CARTESIAN_POINT ( 'NONE',  ( 0.000000000000000000, 0.000000000000000000, 0.000000000000000000 ) ) ;
#61 = FACE_OUTER_BOUND ( 'NONE', #82, .T. ) ;
#62 = ORIENTED_EDGE ( 'NONE', *, *, #110, .F. ) ;
#63 = APPLICATION_CONTEXT ( 'configuration controlled 3d designs of mechanical parts and assemblies' ) ;
#64 = CC_DESIGN_PERSON_AND_ORGANIZATION_ASSIGNMENT ( #142, #177, ( #3 ) ) ;
#65 = MANIFOLD_SOLID_BREP ( 'Boss-Extrude1', #168 ) ;
#66 = CARTESIAN_POINT ( 'NONE',  ( 0.7874015748031496509, 9.642888182262624280E-17, 0.03937007874015747977 ) ) ;
#67 = CALENDAR_DATE ( 2021, 9, 8 ) ;
#68 = VERTEX_POINT ( 'NONE', #141 ) ;
#69 = DIRECTION ( 'NONE',  ( 1.000000000000000000, 0.000000000000000000, 0.000000000000000000 ) ) ;
#70 = AXIS2_PLACEMENT_3D ( 'NONE', #56, #128, #40 ) ;
#71 = PERSON_AND_ORGANIZATION ( #48, #76 ) ;
#72 = DATE_TIME_ROLE ( 'classification_date' ) ;
#73 = CIRCLE ( 'NONE', #173, 0.7874015748031496509 ) ;
#74 = CC_DESIGN_DATE_AND_TIME_ASSIGNMENT ( #39, #20, ( #6 ) ) ;
#75 = EDGE_CURVE ( 'NONE', #138, #102, #89, .T. ) ;
#76 = ORGANIZATION ( 'UNSPECIFIED', 'UNSPECIFIED', '' ) ;
#77 = APPROVAL_PERSON_ORGANIZATION ( #25, #13, #122 ) ;
#78 = EDGE_LOOP ( 'NONE', ( #119, #5, #2, #42 ) ) ;
#79 = ADVANCED_BREP_SHAPE_REPRESENTATION ( 'Web Model 17167_17177', ( #65, #44 ), #43 ) ;
#80 = APPROVAL_PERSON_ORGANIZATION ( #116, #50, #33 ) ;
#81 = DIRECTION ( 'NONE',  ( -0.000000000000000000, -0.000000000000000000, -1.000000000000000000 ) ) ;
#82 = EDGE_LOOP ( 'NONE', ( #92, #62 ) ) ;
#83 = CC_DESIGN_DATE_AND_TIME_ASSIGNMENT ( #35, #72, ( #3 ) ) ;
#84 = DIRECTION ( 'NONE',  ( 0.000000000000000000, 0.000000000000000000, 1.000000000000000000 ) ) ;
#85 = DIRECTION ( 'NONE',  ( 1.000000000000000000, 0.000000000000000000, 0.000000000000000000 ) ) ;
#86 = DIRECTION ( 'NONE',  ( 0.000000000000000000, 0.000000000000000000, 1.000000000000000000 ) ) ;
#87 = SECURITY_CLASSIFICATION_LEVEL ( 'unclassified' ) ;
#88 = ORIENTED_EDGE ( 'NONE', *, *, #150, .F. ) ;
#89 = LINE ( 'NONE', #66, #54 ) ;
#90 = COORDINATED_UNIVERSAL_TIME_OFFSET ( 5, 0, .BEHIND. ) ;
#91 = AXIS2_PLACEMENT_3D ( 'NONE', #10, #12, #115 ) ;
#92 = ORIENTED_EDGE ( 'NONE', *, *, #156, .F. ) ;
#93 = ADVANCED_FACE ( 'NONE', ( #7 ), #41, .T. ) ;
#94 = CYLINDRICAL_SURFACE ( 'NONE', #45, 0.7874015748031496509 ) ;
#95 = ADVANCED_FACE ( 'NONE', ( #61 ), #55, .F. ) ;
#96 = CARTESIAN_POINT ( 'NONE',  ( 0.000000000000000000, 0.000000000000000000, 0.03937007874015747977 ) ) ;
#97 = CC_DESIGN_APPROVAL ( #31, ( #112 ) ) ;
#98 = DIRECTION ( 'NONE',  ( 0.000000000000000000, 0.000000000000000000, 1.000000000000000000 ) ) ;
#99 = CARTESIAN_POINT ( 'NONE',  ( 0.7874015748031496509, 9.642888182262624280E-17, 0.03937007874015747977 ) ) ;
#100 = PERSON_AND_ORGANIZATION ( #48, #76 ) ;
#101 = APPROVAL_STATUS ( 'not_yet_approved' ) ;
#102 = VERTEX_POINT ( 'NONE', #155 ) ;
#103 = APPLICATION_PROTOCOL_DEFINITION ( 'international standard', 'config_control_design', 1994, #15 ) ;
#104 = COORDINATED_UNIVERSAL_TIME_OFFSET ( 5, 0, .BEHIND. ) ;
#105 = ADVANCED_FACE ( 'NONE', ( #19 ), #94, .T. ) ;
#106 = CALENDAR_DATE ( 2021, 9, 8 ) ;
#107 = ORIENTED_EDGE ( 'NONE', *, *, #139, .F. ) ;
#108 = APPROVAL_STATUS ( 'not_yet_approved' ) ;
#109 =( LENGTH_UNIT ( ) NAMED_UNIT ( * ) SI_UNIT ( $, .METRE. ) );
#110 = EDGE_CURVE ( 'NONE', #102, #145, #51, .T. ) ;
#111 = ORIENTED_EDGE ( 'NONE', *, *, #75, .T. ) ;
#112 = PRODUCT_DEFINITION_FORMATION_WITH_SPECIFIED_SOURCE ( 'ANY', '', #17, .NOT_KNOWN. ) ;
#113 = PRODUCT_DEFINITION_SHAPE ( 'NONE', 'NONE',  #6 ) ;
#114 = CC_DESIGN_PERSON_AND_ORGANIZATION_ASSIGNMENT ( #100, #164, ( #112 ) ) ;
#115 = DIRECTION ( 'NONE',  ( -1.000000000000000000, 0.000000000000000000, 0.000000000000000000 ) ) ;
#116 = PERSON_AND_ORGANIZATION ( #48, #76 ) ;
#117 = DIRECTION ( 'NONE',  ( 0.000000000000000000, 0.000000000000000000, 1.000000000000000000 ) ) ;
#118 = DIRECTION ( 'NONE',  ( -1.000000000000000000, 0.000000000000000000, 0.000000000000000000 ) ) ;
#119 = ORIENTED_EDGE ( 'NONE', *, *, #75, .F. ) ;
#120 = AXIS2_PLACEMENT_3D ( 'NONE', #127, #11, #169 ) ;
#121 = APPROVAL_ROLE ( '' ) ;
#122 = APPROVAL_ROLE ( '' ) ;
#123 =( CONVERSION_BASED_UNIT ( 'INCH', #9 ) LENGTH_UNIT ( ) NAMED_UNIT ( #140 ) );
#124 = APPROVAL_DATE_TIME ( #163, #50 ) ;
#125 = COORDINATED_UNIVERSAL_TIME_OFFSET ( 5, 0, .BEHIND. ) ;
#126 = COORDINATED_UNIVERSAL_TIME_OFFSET ( 5, 0, .BEHIND. ) ;
#127 = CARTESIAN_POINT ( 'NONE',  ( 0.000000000000000000, 0.000000000000000000, 0.000000000000000000 ) ) ;
#128 = DIRECTION ( 'NONE',  ( 0.000000000000000000, 0.000000000000000000, 1.000000000000000000 ) ) ;
#129 = COORDINATED_UNIVERSAL_TIME_OFFSET ( 5, 0, .BEHIND. ) ;
#130 = CARTESIAN_POINT ( 'NONE',  ( -0.7874015748031496509, 0.000000000000000000, 0.000000000000000000 ) ) ;
#131 = APPLICATION_PROTOCOL_DEFINITION ( 'international standard', 'config_control_design', 1994, #63 ) ;
#132 = EDGE_LOOP ( 'NONE', ( #107, #111, #49, #88 ) ) ;
#133 = APPROVAL_DATE_TIME ( #136, #13 ) ;
#134 = APPROVAL_PERSON_ORGANIZATION ( #165, #31, #121 ) ;
#135 = EDGE_CURVE ( 'NONE', #68, #138, #137, .T. ) ;
#136 = DATE_AND_TIME ( #178, #170 ) ;
#137 = CIRCLE ( 'NONE', #4, 0.7874015748031496509 ) ;
#138 = VERTEX_POINT ( 'NONE', #99 ) ;
#139 = EDGE_CURVE ( 'NONE', #138, #68, #73, .T. ) ;
#140 = DIMENSIONAL_EXPONENTS ( 1.000000000000000000, 0.000000000000000000, 0.000000000000000000, 0.000000000000000000, 0.000000000000000000, 0.000000000000000000, 0.000000000000000000 ) ;
#141 = CARTESIAN_POINT ( 'NONE',  ( -0.7874015748031496509, 0.000000000000000000, 0.03937007874015747977 ) ) ;
#142 = PERSON_AND_ORGANIZATION ( #48, #76 ) ;
#143 = CARTESIAN_POINT ( 'NONE',  ( 0.000000000000000000, 0.000000000000000000, 0.000000000000000000 ) ) ;
#144 = CC_DESIGN_PERSON_AND_ORGANIZATION_ASSIGNMENT ( #71, #176, ( #17 ) ) ;
#145 = VERTEX_POINT ( 'NONE', #130 ) ;
#146 = CYLINDRICAL_SURFACE ( 'NONE', #91, 0.7874015748031496509 ) ;
#147 = PERSON_AND_ORGANIZATION ( #48, #76 ) ;
#148 = MECHANICAL_CONTEXT ( 'NONE', #63, 'mechanical' ) ;
#149 = PERSON_AND_ORGANIZATION_ROLE ( 'creator' ) ;
#150 = EDGE_CURVE ( 'NONE', #68, #145, #154, .T. ) ;
#151 = CALENDAR_DATE ( 2021, 9, 8 ) ;
#152 = CC_DESIGN_APPROVAL ( #50, ( #3 ) ) ;
#153 = APPROVAL_DATE_TIME ( #175, #31 ) ;
#154 = LINE ( 'NONE', #161, #57 ) ;
#155 = CARTESIAN_POINT ( 'NONE',  ( 0.7874015748031496509, 9.642888182262624280E-17, 0.000000000000000000 ) ) ;
#156 = EDGE_CURVE ( 'NONE', #145, #102, #26, .T. ) ;
#157 = CARTESIAN_POINT ( 'NONE',  ( 0.000000000000000000, 0.000000000000000000, 0.03937007874015747977 ) ) ;
#158 = DIRECTION ( 'NONE',  ( -0.000000000000000000, -0.000000000000000000, -1.000000000000000000 ) ) ;
#159 = LOCAL_TIME ( 10, 32, 5.000000000000000000, #125 ) ;
#160 = CARTESIAN_POINT ( 'NONE',  ( 0.000000000000000000, 0.000000000000000000, 0.03937007874015747977 ) ) ;
#161 = CARTESIAN_POINT ( 'NONE',  ( -0.7874015748031496509, 0.000000000000000000, 0.03937007874015747977 ) ) ;
#162 = PERSON_AND_ORGANIZATION_ROLE ( 'creator' ) ;
#163 = DATE_AND_TIME ( #36, #166 ) ;
#164 = PERSON_AND_ORGANIZATION_ROLE ( 'design_supplier' ) ;
#165 = PERSON_AND_ORGANIZATION ( #48, #76 ) ;
#166 = LOCAL_TIME ( 10, 32, 5.000000000000000000, #126 ) ;
#167 = UNCERTAINTY_MEASURE_WITH_UNIT (LENGTH_MEASURE( 1.000000000000000082E-05 ), #123, 'distance_accuracy_value', 'NONE');
#168 = CLOSED_SHELL ( 'NONE', ( #37, #105, #93, #95 ) ) ;
#169 = DIRECTION ( 'NONE',  ( 1.000000000000000000, 0.000000000000000000, -0.000000000000000000 ) ) ;
#170 = LOCAL_TIME ( 10, 32, 5.000000000000000000, #90 ) ;
#171 = DIRECTION ( 'NONE',  ( -0.000000000000000000, -0.000000000000000000, -1.000000000000000000 ) ) ;
#172 = CC_DESIGN_APPROVAL ( #13, ( #6 ) ) ;
#173 = AXIS2_PLACEMENT_3D ( 'NONE', #160, #174, #32 ) ;
#174 = DIRECTION ( 'NONE',  ( 0.000000000000000000, 0.000000000000000000, 1.000000000000000000 ) ) ;
#175 = DATE_AND_TIME ( #67, #159 ) ;
#176 = PERSON_AND_ORGANIZATION_ROLE ( 'design_owner' ) ;
#177 = PERSON_AND_ORGANIZATION_ROLE ( 'classification_officer' ) ;
#178 = CALENDAR_DATE ( 2021, 9, 8 ) ;
ENDSEC;
END-ISO-10303-21;
