ISO-10303-21;
HEADER;
FILE_DESCRIPTION (( 'STEP AP203' ),
    '1' );
FILE_NAME ('Web Model 49620_13289.step',
    '2020-11-03T21:57:37',
    ( '' ),
    ( '' ),
    'SwSTEP 2.0',
    'SolidWorks 2018',
    '' );
FILE_SCHEMA (( 'CONFIG_CONTROL_DESIGN' ));
ENDSEC;

DATA;
#1 = CARTESIAN_POINT ( 'NONE',  ( -5.000000000000000000, 5.000000000000000888, 0.0000000000000000000 ) ) ;
#2 = CC_DESIGN_DATE_AND_TIME_ASSIGNMENT ( #198, #32, ( #147 ) ) ;
#3 = CARTESIAN_POINT ( 'NONE',  ( -5.000000000000000000, -4.999999999999999112, 2.000000000000000000 ) ) ;
#4 = ORIENTED_EDGE ( 'NONE', *, *, #191, .T. ) ;
#5 = DIRECTION ( 'NONE',  ( -0.0000000000000000000, 0.0000000000000000000, 1.000000000000000000 ) ) ;
#6 = PERSON_AND_ORGANIZATION_ROLE ( 'design_owner' ) ;
#7 = DATE_AND_TIME ( #53, #109 ) ;
#8 = APPROVAL_DATE_TIME ( #15, #31 ) ;
#9 = EDGE_CURVE ( 'NONE', #177, #39, #144, .T. ) ;
#10 =( NAMED_UNIT ( * ) PLANE_ANGLE_UNIT ( ) SI_UNIT ( $, .RADIAN. ) );
#11 = ADVANCED_BREP_SHAPE_REPRESENTATION ( 'Web Model 49620_13289', ( #100, #122 ), #159 ) ;
#12 = APPLICATION_CONTEXT ( 'configuration controlled 3d designs of mechanical parts and assemblies' ) ;
#13 = APPROVAL_ROLE ( '' ) ;
#14 = FACE_OUTER_BOUND ( 'NONE', #186, .T. ) ;
#15 = DATE_AND_TIME ( #47, #173 ) ;
#16 = EDGE_LOOP ( 'NONE', ( #216, #87, #218, #210 ) ) ;
#17 = COORDINATED_UNIVERSAL_TIME_OFFSET ( 5, 0, .BEHIND. ) ;
#18 = VECTOR ( 'NONE', #26, 1000.000000000000000 ) ;
#19 = EDGE_LOOP ( 'NONE', ( #4, #232, #107, #116 ) ) ;
#20 = ORIENTED_EDGE ( 'NONE', *, *, #195, .F. ) ;
#21 = ORIENTED_EDGE ( 'NONE', *, *, #150, .F. ) ;
#22 = DATE_AND_TIME ( #237, #108 ) ;
#23 = CARTESIAN_POINT ( 'NONE',  ( -5.000000000000000000, 5.000000000000000888, 2.000000000000000000 ) ) ;
#24 = CARTESIAN_POINT ( 'NONE',  ( 5.000000000000000000, -5.000000000000000000, 0.0000000000000000000 ) ) ;
#25 = LOCAL_TIME ( 16, 57, 37.00000000000000000, #71 ) ;
#26 = DIRECTION ( 'NONE',  ( 0.0000000000000000000, -1.000000000000000000, 0.0000000000000000000 ) ) ;
#27 = CARTESIAN_POINT ( 'NONE',  ( -5.000000000000000000, 5.000000000000000888, 2.000000000000000000 ) ) ;
#28 = ORGANIZATION ( 'UNSPECIFIED', 'UNSPECIFIED', '' ) ;
#29 = PRODUCT_DEFINITION ( 'UNKNOWN', '', #169, #75 ) ;
#30 = CARTESIAN_POINT ( 'NONE',  ( -5.000000000000000000, -4.999999999999999112, 0.0000000000000000000 ) ) ;
#31 = APPROVAL ( #104, 'UNSPECIFIED' ) ;
#32 = DATE_TIME_ROLE ( 'classification_date' ) ;
#33 = DATE_TIME_ROLE ( 'creation_date' ) ;
#34 = ADVANCED_FACE ( 'NONE', ( #120 ), #134, .F. ) ;
#35 = AXIS2_PLACEMENT_3D ( 'NONE', #187, #204, #132 ) ;
#36 = VERTEX_POINT ( 'NONE', #164 ) ;
#37 = VECTOR ( 'NONE', #168, 1000.000000000000000 ) ;
#38 = DATE_AND_TIME ( #211, #229 ) ;
#39 = VERTEX_POINT ( 'NONE', #52 ) ;
#40 = CARTESIAN_POINT ( 'NONE',  ( -5.000000000000000000, -4.999999999999999112, 2.000000000000000000 ) ) ;
#41 = PLANE ( 'NONE',  #55 ) ;
#42 = DIRECTION ( 'NONE',  ( -0.0000000000000000000, -0.0000000000000000000, -1.000000000000000000 ) ) ;
#43 = COORDINATED_UNIVERSAL_TIME_OFFSET ( 5, 0, .BEHIND. ) ;
#44 = PRODUCT ( 'Web Model 49620_13289', 'Web Model 49620_13289', '', ( #215 ) ) ;
#45 = DIRECTION ( 'NONE',  ( 0.0000000000000000000, 0.0000000000000000000, 1.000000000000000000 ) ) ;
#46 = CC_DESIGN_PERSON_AND_ORGANIZATION_ASSIGNMENT ( #133, #6, ( #44 ) ) ;
#47 = CALENDAR_DATE ( 2020, 3, 11 ) ;
#48 = ADVANCED_FACE ( 'NONE', ( #167 ), #190, .T. ) ;
#49 = ORIENTED_EDGE ( 'NONE', *, *, #127, .T. ) ;
#50 = PERSON_AND_ORGANIZATION ( #51, #28 ) ;
#51 = PERSON ( 'UNSPECIFIED', 'UNSPECIFIED', 'UNSPECIFIED', ('UNSPECIFIED'), ('UNSPECIFIED'), ('UNSPECIFIED') ) ;
#52 = CARTESIAN_POINT ( 'NONE',  ( 5.000000000000000000, 5.000000000000000888, 0.0000000000000000000 ) ) ;
#53 = CALENDAR_DATE ( 2020, 3, 11 ) ;
#54 = VECTOR ( 'NONE', #156, 1000.000000000000000 ) ;
#55 = AXIS2_PLACEMENT_3D ( 'NONE', #77, #130, #117 ) ;
#56 = PERSON_AND_ORGANIZATION ( #51, #28 ) ;
#57 = CARTESIAN_POINT ( 'NONE',  ( -5.000000000000000000, 5.000000000000000888, 2.000000000000000000 ) ) ;
#58 = PERSON_AND_ORGANIZATION ( #51, #28 ) ;
#59 = PERSON_AND_ORGANIZATION ( #51, #28 ) ;
#60 = CARTESIAN_POINT ( 'NONE',  ( -5.000000000000000000, 5.000000000000000888, 2.000000000000000000 ) ) ;
#61 = LINE ( 'NONE', #113, #231 ) ;
#62 = CARTESIAN_POINT ( 'NONE',  ( 5.000000000000000000, 5.000000000000000888, 2.000000000000000000 ) ) ;
#63 = CARTESIAN_POINT ( 'NONE',  ( 5.000000000000000000, 5.000000000000000888, 0.0000000000000000000 ) ) ;
#64 = DIRECTION ( 'NONE',  ( -1.000000000000000000, 0.0000000000000000000, 0.0000000000000000000 ) ) ;
#65 = APPROVAL_PERSON_ORGANIZATION ( #183, #136, #13 ) ;
#66 = CLOSED_SHELL ( 'NONE', ( #91, #162, #233, #180, #48, #34 ) ) ;
#67 = PRODUCT_DEFINITION_SHAPE ( 'NONE', 'NONE',  #29 ) ;
#68 = SHAPE_DEFINITION_REPRESENTATION ( #67, #11 ) ;
#69 = LINE ( 'NONE', #224, #142 ) ;
#70 = CALENDAR_DATE ( 2020, 3, 11 ) ;
#71 = COORDINATED_UNIVERSAL_TIME_OFFSET ( 5, 0, .BEHIND. ) ;
#72 = EDGE_LOOP ( 'NONE', ( #145, #80, #170, #161 ) ) ;
#73 = APPROVAL_PERSON_ORGANIZATION ( #184, #31, #225 ) ;
#74 = LINE ( 'NONE', #27, #18 ) ;
#75 = DESIGN_CONTEXT ( 'detailed design', #212, 'design' ) ;
#76 = CARTESIAN_POINT ( 'NONE',  ( -5.000000000000000000, 5.000000000000000888, 2.000000000000000000 ) ) ;
#77 = CARTESIAN_POINT ( 'NONE',  ( -5.000000000000000000, 5.000000000000000888, 2.000000000000000000 ) ) ;
#78 = CC_DESIGN_APPROVAL ( #136, ( #169 ) ) ;
#79 = DIRECTION ( 'NONE',  ( -0.0000000000000000000, 1.000000000000000000, -0.0000000000000000000 ) ) ;
#80 = ORIENTED_EDGE ( 'NONE', *, *, #127, .F. ) ;
#81 = DIRECTION ( 'NONE',  ( 0.0000000000000000000, -1.000000000000000000, 0.0000000000000000000 ) ) ;
#82 = SECURITY_CLASSIFICATION_LEVEL ( 'unclassified' ) ;
#83 = EDGE_CURVE ( 'NONE', #36, #126, #236, .T. ) ;
#84 = DIRECTION ( 'NONE',  ( 0.0000000000000000000, 0.0000000000000000000, 1.000000000000000000 ) ) ;
#85 = PERSON_AND_ORGANIZATION_ROLE ( 'design_supplier' ) ;
#86 = LINE ( 'NONE', #223, #178 ) ;
#87 = ORIENTED_EDGE ( 'NONE', *, *, #88, .F. ) ;
#88 = EDGE_CURVE ( 'NONE', #207, #124, #90, .T. ) ;
#89 = PERSON_AND_ORGANIZATION ( #51, #28 ) ;
#90 = LINE ( 'NONE', #188, #146 ) ;
#91 = ADVANCED_FACE ( 'NONE', ( #105 ), #41, .F. ) ;
#92 = ORIENTED_EDGE ( 'NONE', *, *, #191, .F. ) ;
#93 = CC_DESIGN_APPROVAL ( #31, ( #147 ) ) ;
#94 = ORIENTED_EDGE ( 'NONE', *, *, #103, .T. ) ;
#95 = LINE ( 'NONE', #152, #158 ) ;
#96 = AXIS2_PLACEMENT_3D ( 'NONE', #214, #64, #45 ) ;
#97 = PLANE ( 'NONE',  #96 ) ;
#98 = DIRECTION ( 'NONE',  ( 8.673617379884035472E-17, 1.000000000000000000, -0.0000000000000000000 ) ) ;
#99 = EDGE_LOOP ( 'NONE', ( #94, #179, #228, #234 ) ) ;
#100 = MANIFOLD_SOLID_BREP ( 'Extrude1', #66 ) ;
#101 = PLANE ( 'NONE',  #153 ) ;
#102 = DIRECTION ( 'NONE',  ( -0.0000000000000000000, -0.0000000000000000000, -1.000000000000000000 ) ) ;
#103 = EDGE_CURVE ( 'NONE', #149, #207, #74, .T. ) ;
#104 = APPROVAL_STATUS ( 'not_yet_approved' ) ;
#105 = FACE_OUTER_BOUND ( 'NONE', #16, .T. ) ;
#106 = PERSON_AND_ORGANIZATION_ROLE ( 'classification_officer' ) ;
#107 = ORIENTED_EDGE ( 'NONE', *, *, #217, .F. ) ;
#108 = LOCAL_TIME ( 16, 57, 37.00000000000000000, #197 ) ;
#109 = LOCAL_TIME ( 16, 57, 37.00000000000000000, #17 ) ;
#110 = VERTEX_POINT ( 'NONE', #1 ) ;
#111 = APPROVAL ( #196, 'UNSPECIFIED' ) ;
#112 = LINE ( 'NONE', #220, #54 ) ;
#113 = CARTESIAN_POINT ( 'NONE',  ( 5.000000000000000000, 5.000000000000000888, 2.000000000000000000 ) ) ;
#114 = CARTESIAN_POINT ( 'NONE',  ( 5.000000000000000000, 5.000000000000000888, 2.000000000000000000 ) ) ;
#115 = CC_DESIGN_SECURITY_CLASSIFICATION ( #147, ( #169 ) ) ;
#116 = ORIENTED_EDGE ( 'NONE', *, *, #88, .T. ) ;
#117 = DIRECTION ( 'NONE',  ( -0.0000000000000000000, 0.0000000000000000000, -1.000000000000000000 ) ) ;
#118 = LINE ( 'NONE', #30, #37 ) ;
#119 = DIRECTION ( 'NONE',  ( 1.000000000000000000, -8.673617379884035472E-17, 0.0000000000000000000 ) ) ;
#120 = FACE_OUTER_BOUND ( 'NONE', #163, .T. ) ;
#121 = PERSON_AND_ORGANIZATION_ROLE ( 'creator' ) ;
#122 = AXIS2_PLACEMENT_3D ( 'NONE', #160, #84, #175 ) ;
#123 = CC_DESIGN_PERSON_AND_ORGANIZATION_ASSIGNMENT ( #50, #138, ( #29 ) ) ;
#124 = VERTEX_POINT ( 'NONE', #208 ) ;
#125 = EDGE_CURVE ( 'NONE', #36, #177, #95, .T. ) ;
#126 = VERTEX_POINT ( 'NONE', #62 ) ;
#127 = EDGE_CURVE ( 'NONE', #126, #39, #61, .T. ) ;
#128 = COORDINATED_UNIVERSAL_TIME_OFFSET ( 5, 0, .BEHIND. ) ;
#129 = CC_DESIGN_APPROVAL ( #111, ( #29 ) ) ;
#130 = DIRECTION ( 'NONE',  ( 1.000000000000000000, 0.0000000000000000000, -0.0000000000000000000 ) ) ;
#131 = DIRECTION ( 'NONE',  ( -1.000000000000000000, 8.673617379884035472E-17, 0.0000000000000000000 ) ) ;
#132 = DIRECTION ( 'NONE',  ( 1.000000000000000000, 0.0000000000000000000, 0.0000000000000000000 ) ) ;
#133 = PERSON_AND_ORGANIZATION ( #51, #28 ) ;
#134 = PLANE ( 'NONE',  #35 ) ;
#135 = DIRECTION ( 'NONE',  ( 0.0000000000000000000, -0.0000000000000000000, -1.000000000000000000 ) ) ;
#136 = APPROVAL ( #227, 'UNSPECIFIED' ) ;
#137 = APPROVAL_ROLE ( '' ) ;
#138 = PERSON_AND_ORGANIZATION_ROLE ( 'creator' ) ;
#139 = PRODUCT_RELATED_PRODUCT_CATEGORY ( 'detail', '', ( #44 ) ) ;
#140 =( LENGTH_UNIT ( ) NAMED_UNIT ( * ) SI_UNIT ( .MILLI., .METRE. ) );
#141 = APPROVAL_DATE_TIME ( #22, #111 ) ;
#142 = VECTOR ( 'NONE', #102, 1000.000000000000000 ) ;
#143 = CC_DESIGN_DATE_AND_TIME_ASSIGNMENT ( #38, #33, ( #29 ) ) ;
#144 = LINE ( 'NONE', #63, #176 ) ;
#145 = ORIENTED_EDGE ( 'NONE', *, *, #9, .T. ) ;
#146 = VECTOR ( 'NONE', #222, 1000.000000000000000 ) ;
#147 = SECURITY_CLASSIFICATION ( '', '', #82 ) ;
#148 = DIRECTION ( 'NONE',  ( -1.000000000000000000, -0.0000000000000000000, -0.0000000000000000000 ) ) ;
#149 = VERTEX_POINT ( 'NONE', #60 ) ;
#150 = EDGE_CURVE ( 'NONE', #110, #124, #86, .T. ) ;
#151 = LINE ( 'NONE', #23, #157 ) ;
#152 = CARTESIAN_POINT ( 'NONE',  ( 5.000000000000000000, -5.000000000000000000, 2.000000000000000000 ) ) ;
#153 = AXIS2_PLACEMENT_3D ( 'NONE', #76, #81, #135 ) ;
#154 = CARTESIAN_POINT ( 'NONE',  ( -5.000000000000000000, -4.999999999999999112, 2.000000000000000000 ) ) ;
#155 = ORIENTED_EDGE ( 'NONE', *, *, #213, .T. ) ;
#156 = DIRECTION ( 'NONE',  ( -1.000000000000000000, -0.0000000000000000000, -0.0000000000000000000 ) ) ;
#157 = VECTOR ( 'NONE', #148, 1000.000000000000000 ) ;
#158 = VECTOR ( 'NONE', #42, 1000.000000000000000 ) ;
#159 =( GEOMETRIC_REPRESENTATION_CONTEXT ( 3 ) GLOBAL_UNCERTAINTY_ASSIGNED_CONTEXT ( ( #230 ) ) GLOBAL_UNIT_ASSIGNED_CONTEXT ( ( #140, #10, #174 ) ) REPRESENTATION_CONTEXT ( 'NONE', 'WORKASPACE' ) );
#160 = CARTESIAN_POINT ( 'NONE',  ( 0.0000000000000000000, 0.0000000000000000000, 0.0000000000000000000 ) ) ;
#161 = ORIENTED_EDGE ( 'NONE', *, *, #125, .T. ) ;
#162 = ADVANCED_FACE ( 'NONE', ( #205 ), #221, .F. ) ;
#163 = EDGE_LOOP ( 'NONE', ( #21, #202, #182, #92 ) ) ;
#164 = CARTESIAN_POINT ( 'NONE',  ( 5.000000000000000000, -5.000000000000000000, 2.000000000000000000 ) ) ;
#165 = EDGE_CURVE ( 'NONE', #149, #110, #69, .T. ) ;
#166 = ORIENTED_EDGE ( 'NONE', *, *, #165, .F. ) ;
#167 = FACE_OUTER_BOUND ( 'NONE', #99, .T. ) ;
#168 = DIRECTION ( 'NONE',  ( 1.000000000000000000, -8.673617379884035472E-17, 0.0000000000000000000 ) ) ;
#169 = PRODUCT_DEFINITION_FORMATION_WITH_SPECIFIED_SOURCE ( 'ANY', '', #44, .NOT_KNOWN. ) ;
#170 = ORIENTED_EDGE ( 'NONE', *, *, #83, .F. ) ;
#171 = DIRECTION ( 'NONE',  ( -0.0000000000000000000, -0.0000000000000000000, -1.000000000000000000 ) ) ;
#172 = DIRECTION ( 'NONE',  ( 0.0000000000000000000, -1.000000000000000000, 0.0000000000000000000 ) ) ;
#173 = LOCAL_TIME ( 16, 57, 37.00000000000000000, #128 ) ;
#174 =( NAMED_UNIT ( * ) SI_UNIT ( $, .STERADIAN. ) SOLID_ANGLE_UNIT ( ) );
#175 = DIRECTION ( 'NONE',  ( 1.000000000000000000, 0.0000000000000000000, 0.0000000000000000000 ) ) ;
#176 = VECTOR ( 'NONE', #209, 1000.000000000000000 ) ;
#177 = VERTEX_POINT ( 'NONE', #24 ) ;
#178 = VECTOR ( 'NONE', #172, 1000.000000000000000 ) ;
#179 = ORIENTED_EDGE ( 'NONE', *, *, #217, .T. ) ;
#180 = ADVANCED_FACE ( 'NONE', ( #14 ), #101, .F. ) ;
#181 = CC_DESIGN_PERSON_AND_ORGANIZATION_ASSIGNMENT ( #56, #106, ( #147 ) ) ;
#182 = ORIENTED_EDGE ( 'NONE', *, *, #9, .F. ) ;
#183 = PERSON_AND_ORGANIZATION ( #51, #28 ) ;
#184 = PERSON_AND_ORGANIZATION ( #51, #28 ) ;
#185 = AXIS2_PLACEMENT_3D ( 'NONE', #154, #98, #131 ) ;
#186 = EDGE_LOOP ( 'NONE', ( #155, #166, #20, #49 ) ) ;
#187 = CARTESIAN_POINT ( 'NONE',  ( -5.000000000000000000, 5.000000000000000888, 0.0000000000000000000 ) ) ;
#188 = CARTESIAN_POINT ( 'NONE',  ( -5.000000000000000000, -4.999999999999999112, 2.000000000000000000 ) ) ;
#189 = APPROVAL_PERSON_ORGANIZATION ( #59, #111, #137 ) ;
#190 = PLANE ( 'NONE',  #203 ) ;
#191 = EDGE_CURVE ( 'NONE', #124, #177, #118, .T. ) ;
#192 = APPLICATION_PROTOCOL_DEFINITION ( 'international standard', 'config_control_design', 1994, #212 ) ;
#193 = VECTOR ( 'NONE', #119, 1000.000000000000000 ) ;
#194 = APPLICATION_PROTOCOL_DEFINITION ( 'international standard', 'config_control_design', 1994, #12 ) ;
#195 = EDGE_CURVE ( 'NONE', #126, #149, #151, .T. ) ;
#196 = APPROVAL_STATUS ( 'not_yet_approved' ) ;
#197 = COORDINATED_UNIVERSAL_TIME_OFFSET ( 5, 0, .BEHIND. ) ;
#198 = DATE_AND_TIME ( #70, #25 ) ;
#199 = APPROVAL_DATE_TIME ( #7, #136 ) ;
#200 = CC_DESIGN_PERSON_AND_ORGANIZATION_ASSIGNMENT ( #58, #121, ( #169 ) ) ;
#201 = VECTOR ( 'NONE', #79, 1000.000000000000000 ) ;
#202 = ORIENTED_EDGE ( 'NONE', *, *, #213, .F. ) ;
#203 = AXIS2_PLACEMENT_3D ( 'NONE', #57, #5, #206 ) ;
#204 = DIRECTION ( 'NONE',  ( -0.0000000000000000000, 0.0000000000000000000, 1.000000000000000000 ) ) ;
#205 = FACE_OUTER_BOUND ( 'NONE', #19, .T. ) ;
#206 = DIRECTION ( 'NONE',  ( 1.000000000000000000, 0.0000000000000000000, 0.0000000000000000000 ) ) ;
#207 = VERTEX_POINT ( 'NONE', #40 ) ;
#208 = CARTESIAN_POINT ( 'NONE',  ( -5.000000000000000000, -4.999999999999999112, 0.0000000000000000000 ) ) ;
#209 = DIRECTION ( 'NONE',  ( -0.0000000000000000000, 1.000000000000000000, -0.0000000000000000000 ) ) ;
#210 = ORIENTED_EDGE ( 'NONE', *, *, #165, .T. ) ;
#211 = CALENDAR_DATE ( 2020, 3, 11 ) ;
#212 = APPLICATION_CONTEXT ( 'configuration controlled 3d designs of mechanical parts and assemblies' ) ;
#213 = EDGE_CURVE ( 'NONE', #39, #110, #112, .T. ) ;
#214 = CARTESIAN_POINT ( 'NONE',  ( 5.000000000000000000, 5.000000000000000888, 2.000000000000000000 ) ) ;
#215 = MECHANICAL_CONTEXT ( 'NONE', #12, 'mechanical' ) ;
#216 = ORIENTED_EDGE ( 'NONE', *, *, #150, .T. ) ;
#217 = EDGE_CURVE ( 'NONE', #207, #36, #235, .T. ) ;
#218 = ORIENTED_EDGE ( 'NONE', *, *, #103, .F. ) ;
#219 = FACE_OUTER_BOUND ( 'NONE', #72, .T. ) ;
#220 = CARTESIAN_POINT ( 'NONE',  ( -5.000000000000000000, 5.000000000000000888, 0.0000000000000000000 ) ) ;
#221 = PLANE ( 'NONE',  #185 ) ;
#222 = DIRECTION ( 'NONE',  ( -0.0000000000000000000, -0.0000000000000000000, -1.000000000000000000 ) ) ;
#223 = CARTESIAN_POINT ( 'NONE',  ( -5.000000000000000000, 5.000000000000000888, 0.0000000000000000000 ) ) ;
#224 = CARTESIAN_POINT ( 'NONE',  ( -5.000000000000000000, 5.000000000000000888, 2.000000000000000000 ) ) ;
#225 = APPROVAL_ROLE ( '' ) ;
#226 = CC_DESIGN_PERSON_AND_ORGANIZATION_ASSIGNMENT ( #89, #85, ( #169 ) ) ;
#227 = APPROVAL_STATUS ( 'not_yet_approved' ) ;
#228 = ORIENTED_EDGE ( 'NONE', *, *, #83, .T. ) ;
#229 = LOCAL_TIME ( 16, 57, 37.00000000000000000, #43 ) ;
#230 = UNCERTAINTY_MEASURE_WITH_UNIT (LENGTH_MEASURE( 1.000000000000000082E-05 ), #140, 'distance_accuracy_value', 'NONE');
#231 = VECTOR ( 'NONE', #171, 1000.000000000000000 ) ;
#232 = ORIENTED_EDGE ( 'NONE', *, *, #125, .F. ) ;
#233 = ADVANCED_FACE ( 'NONE', ( #219 ), #97, .F. ) ;
#234 = ORIENTED_EDGE ( 'NONE', *, *, #195, .T. ) ;
#235 = LINE ( 'NONE', #3, #193 ) ;
#236 = LINE ( 'NONE', #114, #201 ) ;
#237 = CALENDAR_DATE ( 2020, 3, 11 ) ;
ENDSEC;
END-ISO-10303-21;
