ISO-10303-21;
HEADER;
FILE_DESCRIPTION (( 'STEP AP203' ),
    '1' );
FILE_NAME ('Web Model 37128MX_15746.step',
    '2020-10-19T15:40:52',
    ( '' ),
    ( '' ),
    'SwSTEP 2.0',
    'SolidWorks 2018',
    '' );
FILE_SCHEMA (( 'CONFIG_CONTROL_DESIGN' ));
ENDSEC;

DATA;
#1 = CARTESIAN_POINT ( 'NONE',  ( -12.49999999999999467, -12.50000000000000533, 3.000000000000000000 ) ) ;
#2 = DIRECTION ( 'NONE',  ( -0.0000000000000000000, -0.0000000000000000000, -1.000000000000000000 ) ) ;
#3 = COORDINATED_UNIVERSAL_TIME_OFFSET ( 5, 0, .BEHIND. ) ;
#4 = DIRECTION ( 'NONE',  ( 0.0000000000000000000, 0.0000000000000000000, -1.000000000000000000 ) ) ;
#5 = DIRECTION ( 'NONE',  ( 0.0000000000000000000, 0.0000000000000000000, 1.000000000000000000 ) ) ;
#6 = DATE_AND_TIME ( #118, #167 ) ;
#7 = ADVANCED_FACE ( 'NONE', ( #131 ), #73, .F. ) ;
#8 = DIRECTION ( 'NONE',  ( 0.0000000000000000000, 0.0000000000000000000, 1.000000000000000000 ) ) ;
#9 = DATE_TIME_ROLE ( 'creation_date' ) ;
#10 = DATE_AND_TIME ( #170, #83 ) ;
#11 = AXIS2_PLACEMENT_3D ( 'NONE', #225, #113, #100 ) ;
#12 = APPROVAL_DATE_TIME ( #10, #166 ) ;
#13 = LINE ( 'NONE', #187, #88 ) ;
#14 = PLANE ( 'NONE',  #75 ) ;
#15 = PRODUCT_RELATED_PRODUCT_CATEGORY ( 'detail', '', ( #38 ) ) ;
#16 = DIRECTION ( 'NONE',  ( 0.0000000000000000000, 1.000000000000000000, 0.0000000000000000000 ) ) ;
#17 = CARTESIAN_POINT ( 'NONE',  ( -12.49999999999999467, -12.50000000000000533, 3.000000000000000000 ) ) ;
#18 = APPROVAL_PERSON_ORGANIZATION ( #71, #195, #235 ) ;
#19 = DIRECTION ( 'NONE',  ( 0.0000000000000000000, 1.000000000000000000, 0.0000000000000000000 ) ) ;
#20 = APPROVAL_PERSON_ORGANIZATION ( #76, #66, #128 ) ;
#21 = LINE ( 'NONE', #219, #155 ) ;
#22 = CARTESIAN_POINT ( 'NONE',  ( 12.50000000000000533, -12.50000000000000178, -3.000000000000000000 ) ) ;
#23 = CC_DESIGN_PERSON_AND_ORGANIZATION_ASSIGNMENT ( #97, #234, ( #38 ) ) ;
#24 = APPROVAL_STATUS ( 'not_yet_approved' ) ;
#25 = APPROVAL_STATUS ( 'not_yet_approved' ) ;
#26 = EDGE_CURVE ( 'NONE', #98, #39, #227, .T. ) ;
#27 = VECTOR ( 'NONE', #19, 1000.000000000000000 ) ;
#28 = ORIENTED_EDGE ( 'NONE', *, *, #204, .F. ) ;
#29 = ORIENTED_EDGE ( 'NONE', *, *, #204, .T. ) ;
#30 = CARTESIAN_POINT ( 'NONE',  ( -12.49999999999999467, -12.50000000000000533, 3.000000000000000000 ) ) ;
#31 = CALENDAR_DATE ( 2020, 19, 10 ) ;
#32 = DIRECTION ( 'NONE',  ( 1.000000000000000000, 0.0000000000000000000, 0.0000000000000000000 ) ) ;
#33 = PLANE ( 'NONE',  #132 ) ;
#34 = VECTOR ( 'NONE', #2, 1000.000000000000000 ) ;
#35 =( GEOMETRIC_REPRESENTATION_CONTEXT ( 3 ) GLOBAL_UNCERTAINTY_ASSIGNED_CONTEXT ( ( #60 ) ) GLOBAL_UNIT_ASSIGNED_CONTEXT ( ( #175, #163, #90 ) ) REPRESENTATION_CONTEXT ( 'NONE', 'WORKASPACE' ) );
#36 = ORIENTED_EDGE ( 'NONE', *, *, #69, .T. ) ;
#37 = APPROVAL_DATE_TIME ( #6, #66 ) ;
#38 = PRODUCT ( 'Web Model 37128MX_15746', 'Web Model 37128MX_15746', '', ( #198 ) ) ;
#39 = VERTEX_POINT ( 'NONE', #48 ) ;
#40 = ORIENTED_EDGE ( 'NONE', *, *, #150, .F. ) ;
#41 = DIRECTION ( 'NONE',  ( -1.000000000000000000, -1.387778780781445676E-16, 0.0000000000000000000 ) ) ;
#42 = CARTESIAN_POINT ( 'NONE',  ( 12.50000000000000533, -12.50000000000000178, 3.000000000000000000 ) ) ;
#43 = ORIENTED_EDGE ( 'NONE', *, *, #217, .T. ) ;
#44 = EDGE_CURVE ( 'NONE', #116, #196, #222, .T. ) ;
#45 = CALENDAR_DATE ( 2020, 19, 10 ) ;
#46 = EDGE_LOOP ( 'NONE', ( #135, #109, #164, #192 ) ) ;
#47 = AXIS2_PLACEMENT_3D ( 'NONE', #106, #8, #199 ) ;
#48 = CARTESIAN_POINT ( 'NONE',  ( -12.49999999999999467, -12.50000000000000533, -3.000000000000000000 ) ) ;
#49 = ADVANCED_BREP_SHAPE_REPRESENTATION ( 'Web Model 37128MX_15746', ( #191, #47 ), #35 ) ;
#50 = PERSON_AND_ORGANIZATION ( #59, #133 ) ;
#51 = EDGE_LOOP ( 'NONE', ( #58, #36, #232, #138 ) ) ;
#52 = CARTESIAN_POINT ( 'NONE',  ( -12.49999999999999467, 12.49999999999999467, 3.000000000000000000 ) ) ;
#53 = LINE ( 'NONE', #144, #82 ) ;
#54 = EDGE_LOOP ( 'NONE', ( #28, #40, #216, #89 ) ) ;
#55 = DIRECTION ( 'NONE',  ( 0.0000000000000000000, -0.0000000000000000000, 1.000000000000000000 ) ) ;
#56 = LINE ( 'NONE', #209, #94 ) ;
#57 = EDGE_CURVE ( 'NONE', #116, #64, #21, .T. ) ;
#58 = ORIENTED_EDGE ( 'NONE', *, *, #74, .T. ) ;
#59 = PERSON ( 'UNSPECIFIED', 'UNSPECIFIED', 'UNSPECIFIED', ('UNSPECIFIED'), ('UNSPECIFIED'), ('UNSPECIFIED') ) ;
#60 = UNCERTAINTY_MEASURE_WITH_UNIT (LENGTH_MEASURE( 1.000000000000000082E-05 ), #175, 'distance_accuracy_value', 'NONE');
#61 = CARTESIAN_POINT ( 'NONE',  ( 12.50000000000000533, -12.50000000000000178, 3.000000000000000000 ) ) ;
#62 = VECTOR ( 'NONE', #123, 1000.000000000000000 ) ;
#63 = DIRECTION ( 'NONE',  ( -1.000000000000000000, 0.0000000000000000000, 0.0000000000000000000 ) ) ;
#64 = VERTEX_POINT ( 'NONE', #80 ) ;
#65 = ADVANCED_FACE ( 'NONE', ( #84 ), #224, .F. ) ;
#66 = APPROVAL ( #25, 'UNSPECIFIED' ) ;
#67 = DATE_TIME_ROLE ( 'classification_date' ) ;
#68 = FACE_OUTER_BOUND ( 'NONE', #51, .T. ) ;
#69 = EDGE_CURVE ( 'NONE', #98, #173, #120, .T. ) ;
#70 = VECTOR ( 'NONE', #142, 1000.000000000000000 ) ;
#71 = PERSON_AND_ORGANIZATION ( #59, #133 ) ;
#72 = ORIENTED_EDGE ( 'NONE', *, *, #157, .F. ) ;
#73 = PLANE ( 'NONE',  #117 ) ;
#74 = EDGE_CURVE ( 'NONE', #64, #98, #53, .T. ) ;
#75 = AXIS2_PLACEMENT_3D ( 'NONE', #228, #63, #5 ) ;
#76 = PERSON_AND_ORGANIZATION ( #59, #133 ) ;
#77 = VECTOR ( 'NONE', #169, 1000.000000000000000 ) ;
#78 = ORIENTED_EDGE ( 'NONE', *, *, #112, .T. ) ;
#79 = CARTESIAN_POINT ( 'NONE',  ( 12.50000000000000533, 12.49999999999999822, 3.000000000000000000 ) ) ;
#80 = CARTESIAN_POINT ( 'NONE',  ( -12.49999999999999467, 12.49999999999999467, 3.000000000000000000 ) ) ;
#81 = CC_DESIGN_APPROVAL ( #166, ( #177 ) ) ;
#82 = VECTOR ( 'NONE', #188, 1000.000000000000000 ) ;
#83 = LOCAL_TIME ( 11, 40, 52.00000000000000000, #165 ) ;
#84 = FACE_OUTER_BOUND ( 'NONE', #54, .T. ) ;
#85 = DIRECTION ( 'NONE',  ( 1.000000000000000000, 0.0000000000000000000, -0.0000000000000000000 ) ) ;
#86 = DIRECTION ( 'NONE',  ( 1.000000000000000000, 0.0000000000000000000, -0.0000000000000000000 ) ) ;
#87 = ADVANCED_FACE ( 'NONE', ( #168 ), #111, .F. ) ;
#88 = VECTOR ( 'NONE', #99, 1000.000000000000000 ) ;
#89 = ORIENTED_EDGE ( 'NONE', *, *, #104, .F. ) ;
#90 =( NAMED_UNIT ( * ) SI_UNIT ( $, .STERADIAN. ) SOLID_ANGLE_UNIT ( ) );
#91 = LINE ( 'NONE', #42, #27 ) ;
#92 = ORIENTED_EDGE ( 'NONE', *, *, #74, .F. ) ;
#93 = PRODUCT_DEFINITION_SHAPE ( 'NONE', 'NONE',  #177 ) ;
#94 = VECTOR ( 'NONE', #16, 1000.000000000000000 ) ;
#95 = EDGE_LOOP ( 'NONE', ( #29, #223, #92, #43 ) ) ;
#96 = DIRECTION ( 'NONE',  ( -1.000000000000000000, -1.387778780781445429E-16, 0.0000000000000000000 ) ) ;
#97 = PERSON_AND_ORGANIZATION ( #59, #133 ) ;
#98 = VERTEX_POINT ( 'NONE', #1 ) ;
#99 = DIRECTION ( 'NONE',  ( -0.0000000000000000000, -1.000000000000000000, -0.0000000000000000000 ) ) ;
#100 = DIRECTION ( 'NONE',  ( 1.000000000000000000, 1.387778780781445429E-16, 0.0000000000000000000 ) ) ;
#101 = FACE_OUTER_BOUND ( 'NONE', #205, .T. ) ;
#102 = CC_DESIGN_PERSON_AND_ORGANIZATION_ASSIGNMENT ( #148, #233, ( #153 ) ) ;
#103 = CARTESIAN_POINT ( 'NONE',  ( 12.50000000000000533, -12.50000000000000178, 3.000000000000000000 ) ) ;
#104 = EDGE_CURVE ( 'NONE', #39, #122, #160, .T. ) ;
#105 = APPROVAL_STATUS ( 'not_yet_approved' ) ;
#106 = CARTESIAN_POINT ( 'NONE',  ( 0.0000000000000000000, 0.0000000000000000000, 0.0000000000000000000 ) ) ;
#107 = APPLICATION_CONTEXT ( 'configuration controlled 3d designs of mechanical parts and assemblies' ) ;
#108 = ORIENTED_EDGE ( 'NONE', *, *, #145, .T. ) ;
#109 = ORIENTED_EDGE ( 'NONE', *, *, #112, .F. ) ;
#110 = CC_DESIGN_PERSON_AND_ORGANIZATION_ASSIGNMENT ( #184, #126, ( #230 ) ) ;
#111 = PLANE ( 'NONE',  #203 ) ;
#112 = EDGE_CURVE ( 'NONE', #173, #122, #231, .T. ) ;
#113 = DIRECTION ( 'NONE',  ( 1.387778780781445429E-16, -1.000000000000000000, 0.0000000000000000000 ) ) ;
#114 = CC_DESIGN_DATE_AND_TIME_ASSIGNMENT ( #197, #9, ( #177 ) ) ;
#115 = VECTOR ( 'NONE', #172, 1000.000000000000000 ) ;
#116 = VERTEX_POINT ( 'NONE', #79 ) ;
#117 = AXIS2_PLACEMENT_3D ( 'NONE', #182, #201, #96 ) ;
#118 = CALENDAR_DATE ( 2020, 19, 10 ) ;
#119 = DESIGN_CONTEXT ( 'detailed design', #107, 'design' ) ;
#120 = LINE ( 'NONE', #61, #62 ) ;
#121 = DIRECTION ( 'NONE',  ( 1.000000000000000000, 1.387778780781445676E-16, -0.0000000000000000000 ) ) ;
#122 = VERTEX_POINT ( 'NONE', #136 ) ;
#123 = DIRECTION ( 'NONE',  ( 1.000000000000000000, 1.387778780781445676E-16, -0.0000000000000000000 ) ) ;
#124 = CC_DESIGN_PERSON_AND_ORGANIZATION_ASSIGNMENT ( #236, #146, ( #153 ) ) ;
#125 = CALENDAR_DATE ( 2020, 19, 10 ) ;
#126 = PERSON_AND_ORGANIZATION_ROLE ( 'classification_officer' ) ;
#127 = EDGE_LOOP ( 'NONE', ( #211, #159, #151, #181 ) ) ;
#128 = APPROVAL_ROLE ( '' ) ;
#129 = APPLICATION_CONTEXT ( 'configuration controlled 3d designs of mechanical parts and assemblies' ) ;
#130 = COORDINATED_UNIVERSAL_TIME_OFFSET ( 5, 0, .BEHIND. ) ;
#131 = FACE_OUTER_BOUND ( 'NONE', #46, .T. ) ;
#132 = AXIS2_PLACEMENT_3D ( 'NONE', #137, #186, #85 ) ;
#133 = ORGANIZATION ( 'UNSPECIFIED', 'UNSPECIFIED', '' ) ;
#134 = VECTOR ( 'NONE', #183, 1000.000000000000000 ) ;
#135 = ORIENTED_EDGE ( 'NONE', *, *, #104, .T. ) ;
#136 = CARTESIAN_POINT ( 'NONE',  ( 12.50000000000000533, -12.50000000000000178, -3.000000000000000000 ) ) ;
#137 = CARTESIAN_POINT ( 'NONE',  ( 0.0000000000000000000, 0.0000000000000000000, 3.000000000000000000 ) ) ;
#138 = ORIENTED_EDGE ( 'NONE', *, *, #57, .T. ) ;
#139 = ADVANCED_FACE ( 'NONE', ( #68 ), #33, .T. ) ;
#140 = LOCAL_TIME ( 11, 40, 52.00000000000000000, #130 ) ;
#141 = CLOSED_SHELL ( 'NONE', ( #87, #7, #174, #208, #139, #65 ) ) ;
#142 = DIRECTION ( 'NONE',  ( -1.000000000000000000, -1.387778780781445676E-16, 0.0000000000000000000 ) ) ;
#143 = CC_DESIGN_PERSON_AND_ORGANIZATION_ASSIGNMENT ( #158, #149, ( #177 ) ) ;
#144 = CARTESIAN_POINT ( 'NONE',  ( -12.49999999999999467, -12.50000000000000533, 3.000000000000000000 ) ) ;
#145 = EDGE_CURVE ( 'NONE', #122, #196, #56, .T. ) ;
#146 = PERSON_AND_ORGANIZATION_ROLE ( 'creator' ) ;
#147 = AXIS2_PLACEMENT_3D ( 'NONE', #229, #55, #86 ) ;
#148 = PERSON_AND_ORGANIZATION ( #59, #133 ) ;
#149 = PERSON_AND_ORGANIZATION_ROLE ( 'creator' ) ;
#150 = EDGE_CURVE ( 'NONE', #196, #179, #202, .T. ) ;
#151 = ORIENTED_EDGE ( 'NONE', *, *, #57, .F. ) ;
#152 = LOCAL_TIME ( 11, 40, 52.00000000000000000, #171 ) ;
#153 = PRODUCT_DEFINITION_FORMATION_WITH_SPECIFIED_SOURCE ( 'ANY', '', #38, .NOT_KNOWN. ) ;
#154 = CARTESIAN_POINT ( 'NONE',  ( -12.49999999999999467, 12.49999999999999467, -3.000000000000000000 ) ) ;
#155 = VECTOR ( 'NONE', #41, 1000.000000000000000 ) ;
#156 = PLANE ( 'NONE',  #11 ) ;
#157 = EDGE_CURVE ( 'NONE', #173, #116, #91, .T. ) ;
#158 = PERSON_AND_ORGANIZATION ( #59, #133 ) ;
#159 = ORIENTED_EDGE ( 'NONE', *, *, #217, .F. ) ;
#160 = LINE ( 'NONE', #22, #221 ) ;
#161 = ORIENTED_EDGE ( 'NONE', *, *, #44, .F. ) ;
#162 = SECURITY_CLASSIFICATION_LEVEL ( 'unclassified' ) ;
#163 =( NAMED_UNIT ( * ) PLANE_ANGLE_UNIT ( ) SI_UNIT ( $, .RADIAN. ) );
#164 = ORIENTED_EDGE ( 'NONE', *, *, #69, .F. ) ;
#165 = COORDINATED_UNIVERSAL_TIME_OFFSET ( 5, 0, .BEHIND. ) ;
#166 = APPROVAL ( #105, 'UNSPECIFIED' ) ;
#167 = LOCAL_TIME ( 11, 40, 52.00000000000000000, #215 ) ;
#168 = FACE_OUTER_BOUND ( 'NONE', #95, .T. ) ;
#169 = DIRECTION ( 'NONE',  ( -0.0000000000000000000, -0.0000000000000000000, -1.000000000000000000 ) ) ;
#170 = CALENDAR_DATE ( 2020, 19, 10 ) ;
#171 = COORDINATED_UNIVERSAL_TIME_OFFSET ( 5, 0, .BEHIND. ) ;
#172 = DIRECTION ( 'NONE',  ( -0.0000000000000000000, -0.0000000000000000000, -1.000000000000000000 ) ) ;
#173 = VERTEX_POINT ( 'NONE', #103 ) ;
#174 = ADVANCED_FACE ( 'NONE', ( #101 ), #14, .F. ) ;
#175 =( LENGTH_UNIT ( ) NAMED_UNIT ( * ) SI_UNIT ( .MILLI., .METRE. ) );
#176 = SHAPE_DEFINITION_REPRESENTATION ( #93, #49 ) ;
#177 = PRODUCT_DEFINITION ( 'UNKNOWN', '', #153, #119 ) ;
#178 = APPLICATION_PROTOCOL_DEFINITION ( 'international standard', 'config_control_design', 1994, #129 ) ;
#179 = VERTEX_POINT ( 'NONE', #154 ) ;
#180 = LINE ( 'NONE', #52, #34 ) ;
#181 = ORIENTED_EDGE ( 'NONE', *, *, #44, .T. ) ;
#182 = CARTESIAN_POINT ( 'NONE',  ( 12.50000000000000533, -12.50000000000000178, 3.000000000000000000 ) ) ;
#183 = DIRECTION ( 'NONE',  ( -0.0000000000000000000, -0.0000000000000000000, -1.000000000000000000 ) ) ;
#184 = PERSON_AND_ORGANIZATION ( #59, #133 ) ;
#185 = CC_DESIGN_DATE_AND_TIME_ASSIGNMENT ( #226, #67, ( #230 ) ) ;
#186 = DIRECTION ( 'NONE',  ( 0.0000000000000000000, -0.0000000000000000000, 1.000000000000000000 ) ) ;
#187 = CARTESIAN_POINT ( 'NONE',  ( -12.49999999999999467, -12.50000000000000533, -3.000000000000000000 ) ) ;
#188 = DIRECTION ( 'NONE',  ( -0.0000000000000000000, -1.000000000000000000, -0.0000000000000000000 ) ) ;
#189 = APPROVAL_DATE_TIME ( #237, #195 ) ;
#190 = CC_DESIGN_APPROVAL ( #195, ( #153 ) ) ;
#191 = MANIFOLD_SOLID_BREP ( 'Boss-Extrude1', #141 ) ;
#192 = ORIENTED_EDGE ( 'NONE', *, *, #26, .T. ) ;
#193 = CARTESIAN_POINT ( 'NONE',  ( 12.50000000000000533, -12.50000000000000178, 3.000000000000000000 ) ) ;
#194 = CARTESIAN_POINT ( 'NONE',  ( 12.50000000000000533, 12.49999999999999822, -3.000000000000000000 ) ) ;
#195 = APPROVAL ( #24, 'UNSPECIFIED' ) ;
#196 = VERTEX_POINT ( 'NONE', #194 ) ;
#197 = DATE_AND_TIME ( #125, #214 ) ;
#198 = MECHANICAL_CONTEXT ( 'NONE', #129, 'mechanical' ) ;
#199 = DIRECTION ( 'NONE',  ( 1.000000000000000000, 0.0000000000000000000, 0.0000000000000000000 ) ) ;
#200 = CC_DESIGN_APPROVAL ( #66, ( #230 ) ) ;
#201 = DIRECTION ( 'NONE',  ( -1.387778780781445429E-16, 1.000000000000000000, 0.0000000000000000000 ) ) ;
#202 = LINE ( 'NONE', #206, #70 ) ;
#203 = AXIS2_PLACEMENT_3D ( 'NONE', #17, #32, #4 ) ;
#204 = EDGE_CURVE ( 'NONE', #179, #39, #13, .T. ) ;
#205 = EDGE_LOOP ( 'NONE', ( #108, #161, #72, #78 ) ) ;
#206 = CARTESIAN_POINT ( 'NONE',  ( 12.50000000000000533, 12.49999999999999822, -3.000000000000000000 ) ) ;
#207 = FACE_OUTER_BOUND ( 'NONE', #127, .T. ) ;
#208 = ADVANCED_FACE ( 'NONE', ( #207 ), #156, .F. ) ;
#209 = CARTESIAN_POINT ( 'NONE',  ( 12.50000000000000533, -12.50000000000000178, -3.000000000000000000 ) ) ;
#210 = CC_DESIGN_SECURITY_CLASSIFICATION ( #230, ( #153 ) ) ;
#211 = ORIENTED_EDGE ( 'NONE', *, *, #150, .T. ) ;
#212 = APPROVAL_ROLE ( '' ) ;
#213 = APPLICATION_PROTOCOL_DEFINITION ( 'international standard', 'config_control_design', 1994, #107 ) ;
#214 = LOCAL_TIME ( 11, 40, 52.00000000000000000, #3 ) ;
#215 = COORDINATED_UNIVERSAL_TIME_OFFSET ( 5, 0, .BEHIND. ) ;
#216 = ORIENTED_EDGE ( 'NONE', *, *, #145, .F. ) ;
#217 = EDGE_CURVE ( 'NONE', #64, #179, #180, .T. ) ;
#218 = APPROVAL_PERSON_ORGANIZATION ( #50, #166, #212 ) ;
#219 = CARTESIAN_POINT ( 'NONE',  ( 12.50000000000000533, 12.49999999999999822, 3.000000000000000000 ) ) ;
#220 = CARTESIAN_POINT ( 'NONE',  ( 12.50000000000000533, 12.49999999999999822, 3.000000000000000000 ) ) ;
#221 = VECTOR ( 'NONE', #121, 1000.000000000000000 ) ;
#222 = LINE ( 'NONE', #220, #77 ) ;
#223 = ORIENTED_EDGE ( 'NONE', *, *, #26, .F. ) ;
#224 = PLANE ( 'NONE',  #147 ) ;
#225 = CARTESIAN_POINT ( 'NONE',  ( 12.50000000000000533, 12.49999999999999822, 3.000000000000000000 ) ) ;
#226 = DATE_AND_TIME ( #31, #140 ) ;
#227 = LINE ( 'NONE', #30, #134 ) ;
#228 = CARTESIAN_POINT ( 'NONE',  ( 12.50000000000000533, -12.50000000000000178, 3.000000000000000000 ) ) ;
#229 = CARTESIAN_POINT ( 'NONE',  ( 0.0000000000000000000, 0.0000000000000000000, -3.000000000000000000 ) ) ;
#230 = SECURITY_CLASSIFICATION ( '', '', #162 ) ;
#231 = LINE ( 'NONE', #193, #115 ) ;
#232 = ORIENTED_EDGE ( 'NONE', *, *, #157, .T. ) ;
#233 = PERSON_AND_ORGANIZATION_ROLE ( 'design_supplier' ) ;
#234 = PERSON_AND_ORGANIZATION_ROLE ( 'design_owner' ) ;
#235 = APPROVAL_ROLE ( '' ) ;
#236 = PERSON_AND_ORGANIZATION ( #59, #133 ) ;
#237 = DATE_AND_TIME ( #45, #152 ) ;
ENDSEC;
END-ISO-10303-21;
