ISO-10303-21;
HEADER;
FILE_DESCRIPTION (( 'STEP AP203' ),
    '1' );
FILE_NAME ('Web Model 14965_14965.step',
    '2021-06-14T15:16:41',
    ( '' ),
    ( '' ),
    'SwSTEP 2.0',
    'SolidWorks 2018',
    '' );
FILE_SCHEMA (( 'CONFIG_CONTROL_DESIGN' ));
ENDSEC;

DATA;
#1 = APPROVAL ( #68, 'UNSPECIFIED' ) ;
#2 = DIRECTION ( 'NONE',  ( 0.000000000000000000, 0.000000000000000000, -1.000000000000000000 ) ) ;
#3 = PLANE ( 'NONE',  #90 ) ;
#4 = PERSON_AND_ORGANIZATION ( #64, #163 ) ;
#5 = CALENDAR_DATE ( 2021, 14, 6 ) ;
#6 = CARTESIAN_POINT ( 'NONE',  ( 2.000000000000000000, 2.449293598294706513E-15, -20.00000000000000000 ) ) ;
#7 = ORIENTED_EDGE ( 'NONE', *, *, #99, .F. ) ;
#8 = APPROVAL_DATE_TIME ( #145, #128 ) ;
#9 = ORIENTED_EDGE ( 'NONE', *, *, #54, .F. ) ;
#10 = PERSON_AND_ORGANIZATION_ROLE ( 'design_owner' ) ;
#11 = APPROVAL_STATUS ( 'not_yet_approved' ) ;
#12 = DIRECTION ( 'NONE',  ( 1.000000000000000000, 0.000000000000000000, 0.000000000000000000 ) ) ;
#13 = SHAPE_DEFINITION_REPRESENTATION ( #152, #60 ) ;
#14 = VERTEX_POINT ( 'NONE', #89 ) ;
#15 = CC_DESIGN_PERSON_AND_ORGANIZATION_ASSIGNMENT ( #93, #147, ( #38 ) ) ;
#16 = LINE ( 'NONE', #102, #138 ) ;
#17 = COORDINATED_UNIVERSAL_TIME_OFFSET ( 5, 0, .BEHIND. ) ;
#18 = COORDINATED_UNIVERSAL_TIME_OFFSET ( 5, 0, .BEHIND. ) ;
#19 = VERTEX_POINT ( 'NONE', #171 ) ;
#20 = APPLICATION_PROTOCOL_DEFINITION ( 'international standard', 'config_control_design', 1994, #146 ) ;
#21 =( GEOMETRIC_REPRESENTATION_CONTEXT ( 3 ) GLOBAL_UNCERTAINTY_ASSIGNED_CONTEXT ( ( #127 ) ) GLOBAL_UNIT_ASSIGNED_CONTEXT ( ( #87, #95, #111 ) ) REPRESENTATION_CONTEXT ( 'NONE', 'WORKASPACE' ) );
#22 = CIRCLE ( 'NONE', #74, 20.00000000000000000 ) ;
#23 = CARTESIAN_POINT ( 'NONE',  ( 0.000000000000000000, 0.000000000000000000, 0.000000000000000000 ) ) ;
#24 = ADVANCED_FACE ( 'NONE', ( #94 ), #140, .F. ) ;
#25 = CALENDAR_DATE ( 2021, 14, 6 ) ;
#26 = APPROVAL_DATE_TIME ( #100, #1 ) ;
#27 = VECTOR ( 'NONE', #28, 1000.000000000000000 ) ;
#28 = DIRECTION ( 'NONE',  ( -1.000000000000000000, -0.000000000000000000, -0.000000000000000000 ) ) ;
#29 = DATE_AND_TIME ( #73, #31 ) ;
#30 = EDGE_CURVE ( 'NONE', #86, #14, #16, .T. ) ;
#31 = LOCAL_TIME ( 11, 16, 41.00000000000000000, #18 ) ;
#32 = LINE ( 'NONE', #116, #27 ) ;
#33 = DIRECTION ( 'NONE',  ( 0.000000000000000000, 0.000000000000000000, -1.000000000000000000 ) ) ;
#34 = CC_DESIGN_PERSON_AND_ORGANIZATION_ASSIGNMENT ( #161, #10, ( #101 ) ) ;
#35 = CYLINDRICAL_SURFACE ( 'NONE', #96, 20.00000000000000000 ) ;
#36 = ORIENTED_EDGE ( 'NONE', *, *, #39, .T. ) ;
#37 = DATE_TIME_ROLE ( 'creation_date' ) ;
#38 = PRODUCT_DEFINITION ( 'UNKNOWN', '', #115, #119 ) ;
#39 = EDGE_CURVE ( 'NONE', #79, #14, #22, .T. ) ;
#40 = CALENDAR_DATE ( 2021, 14, 6 ) ;
#41 = PERSON_AND_ORGANIZATION_ROLE ( 'creator' ) ;
#42 = CARTESIAN_POINT ( 'NONE',  ( 2.000000000000000000, 0.000000000000000000, 0.000000000000000000 ) ) ;
#43 = CARTESIAN_POINT ( 'NONE',  ( 2.000000000000000000, 0.000000000000000000, 0.000000000000000000 ) ) ;
#44 = APPROVAL_PERSON_ORGANIZATION ( #55, #128, #109 ) ;
#45 = EDGE_CURVE ( 'NONE', #19, #79, #32, .T. ) ;
#46 = CALENDAR_DATE ( 2021, 14, 6 ) ;
#47 = EDGE_LOOP ( 'NONE', ( #114, #9 ) ) ;
#48 = SECURITY_CLASSIFICATION ( '', '', #120 ) ;
#49 = ORIENTED_EDGE ( 'NONE', *, *, #63, .T. ) ;
#50 = DIRECTION ( 'NONE',  ( 1.000000000000000000, 0.000000000000000000, 0.000000000000000000 ) ) ;
#51 = AXIS2_PLACEMENT_3D ( 'NONE', #42, #122, #143 ) ;
#52 = CARTESIAN_POINT ( 'NONE',  ( -2.000000000000000000, 0.000000000000000000, 0.000000000000000000 ) ) ;
#53 = ORIENTED_EDGE ( 'NONE', *, *, #30, .F. ) ;
#54 = EDGE_CURVE ( 'NONE', #14, #79, #66, .T. ) ;
#55 = PERSON_AND_ORGANIZATION ( #64, #163 ) ;
#56 = APPLICATION_PROTOCOL_DEFINITION ( 'international standard', 'config_control_design', 1994, #165 ) ;
#57 = ORIENTED_EDGE ( 'NONE', *, *, #45, .T. ) ;
#58 = CC_DESIGN_PERSON_AND_ORGANIZATION_ASSIGNMENT ( #168, #80, ( #48 ) ) ;
#59 = EDGE_LOOP ( 'NONE', ( #113, #125, #170, #162 ) ) ;
#60 = ADVANCED_BREP_SHAPE_REPRESENTATION ( 'Web Model 14965_14965', ( #88, #132 ), #21 ) ;
#61 = FACE_OUTER_BOUND ( 'NONE', #153, .T. ) ;
#62 = DIRECTION ( 'NONE',  ( 0.000000000000000000, 0.000000000000000000, -1.000000000000000000 ) ) ;
#63 = EDGE_CURVE ( 'NONE', #86, #19, #159, .T. ) ;
#64 = PERSON ( 'UNSPECIFIED', 'UNSPECIFIED', 'UNSPECIFIED', ('UNSPECIFIED'), ('UNSPECIFIED'), ('UNSPECIFIED') ) ;
#65 = DATE_AND_TIME ( #40, #76 ) ;
#66 = CIRCLE ( 'NONE', #69, 20.00000000000000000 ) ;
#67 = CC_DESIGN_APPROVAL ( #154, ( #115 ) ) ;
#68 = APPROVAL_STATUS ( 'not_yet_approved' ) ;
#69 = AXIS2_PLACEMENT_3D ( 'NONE', #134, #148, #70 ) ;
#70 = DIRECTION ( 'NONE',  ( 0.000000000000000000, 0.000000000000000000, -1.000000000000000000 ) ) ;
#71 = DIRECTION ( 'NONE',  ( -1.000000000000000000, -0.000000000000000000, -0.000000000000000000 ) ) ;
#72 = CC_DESIGN_DATE_AND_TIME_ASSIGNMENT ( #131, #133, ( #48 ) ) ;
#73 = CALENDAR_DATE ( 2021, 14, 6 ) ;
#74 = AXIS2_PLACEMENT_3D ( 'NONE', #129, #50, #62 ) ;
#75 = COORDINATED_UNIVERSAL_TIME_OFFSET ( 5, 0, .BEHIND. ) ;
#76 = LOCAL_TIME ( 11, 16, 41.00000000000000000, #17 ) ;
#77 = FACE_OUTER_BOUND ( 'NONE', #118, .T. ) ;
#78 = CC_DESIGN_PERSON_AND_ORGANIZATION_ASSIGNMENT ( #126, #81, ( #115 ) ) ;
#79 = VERTEX_POINT ( 'NONE', #169 ) ;
#80 = PERSON_AND_ORGANIZATION_ROLE ( 'classification_officer' ) ;
#81 = PERSON_AND_ORGANIZATION_ROLE ( 'design_supplier' ) ;
#82 = DIRECTION ( 'NONE',  ( 0.000000000000000000, 0.000000000000000000, 1.000000000000000000 ) ) ;
#83 = APPROVAL_STATUS ( 'not_yet_approved' ) ;
#84 = AXIS2_PLACEMENT_3D ( 'NONE', #173, #12, #108 ) ;
#85 = DIRECTION ( 'NONE',  ( 0.000000000000000000, 0.000000000000000000, 1.000000000000000000 ) ) ;
#86 = VERTEX_POINT ( 'NONE', #6 ) ;
#87 =( LENGTH_UNIT ( ) NAMED_UNIT ( * ) SI_UNIT ( .MILLI., .METRE. ) );
#88 = MANIFOLD_SOLID_BREP ( 'Boss-Extrude1', #110 ) ;
#89 = CARTESIAN_POINT ( 'NONE',  ( -2.000000000000000000, 2.449293598294706513E-15, -20.00000000000000000 ) ) ;
#90 = AXIS2_PLACEMENT_3D ( 'NONE', #43, #150, #2 ) ;
#91 = CYLINDRICAL_SURFACE ( 'NONE', #141, 20.00000000000000000 ) ;
#92 = LOCAL_TIME ( 11, 16, 41.00000000000000000, #97 ) ;
#93 = PERSON_AND_ORGANIZATION ( #64, #163 ) ;
#94 = FACE_OUTER_BOUND ( 'NONE', #47, .T. ) ;
#95 =( NAMED_UNIT ( * ) PLANE_ANGLE_UNIT ( ) SI_UNIT ( $, .RADIAN. ) );
#96 = AXIS2_PLACEMENT_3D ( 'NONE', #130, #158, #82 ) ;
#97 = COORDINATED_UNIVERSAL_TIME_OFFSET ( 5, 0, .BEHIND. ) ;
#98 = FACE_OUTER_BOUND ( 'NONE', #59, .T. ) ;
#99 = EDGE_CURVE ( 'NONE', #19, #86, #124, .T. ) ;
#100 = DATE_AND_TIME ( #46, #92 ) ;
#101 = PRODUCT ( 'Web Model 14965_14965', 'Web Model 14965_14965', '', ( #123 ) ) ;
#102 = CARTESIAN_POINT ( 'NONE',  ( 2.000000000000000000, 2.449293598294706513E-15, -20.00000000000000000 ) ) ;
#103 = LOCAL_TIME ( 11, 16, 41.00000000000000000, #139 ) ;
#104 = CC_DESIGN_DATE_AND_TIME_ASSIGNMENT ( #65, #37, ( #38 ) ) ;
#105 = APPROVAL_ROLE ( '' ) ;
#106 = AXIS2_PLACEMENT_3D ( 'NONE', #52, #142, #33 ) ;
#107 = ADVANCED_FACE ( 'NONE', ( #61 ), #35, .T. ) ;
#108 = DIRECTION ( 'NONE',  ( 0.000000000000000000, 0.000000000000000000, -1.000000000000000000 ) ) ;
#109 = APPROVAL_ROLE ( '' ) ;
#110 = CLOSED_SHELL ( 'NONE', ( #167, #107, #121, #24 ) ) ;
#111 =( NAMED_UNIT ( * ) SI_UNIT ( $, .STERADIAN. ) SOLID_ANGLE_UNIT ( ) );
#112 = APPROVAL_PERSON_ORGANIZATION ( #155, #1, #160 ) ;
#113 = ORIENTED_EDGE ( 'NONE', *, *, #63, .F. ) ;
#114 = ORIENTED_EDGE ( 'NONE', *, *, #39, .F. ) ;
#115 = PRODUCT_DEFINITION_FORMATION_WITH_SPECIFIED_SOURCE ( 'ANY', '', #101, .NOT_KNOWN. ) ;
#116 = CARTESIAN_POINT ( 'NONE',  ( 2.000000000000000000, 0.000000000000000000, 20.00000000000000000 ) ) ;
#117 = LOCAL_TIME ( 11, 16, 41.00000000000000000, #75 ) ;
#118 = EDGE_LOOP ( 'NONE', ( #164, #49 ) ) ;
#119 = DESIGN_CONTEXT ( 'detailed design', #146, 'design' ) ;
#120 = SECURITY_CLASSIFICATION_LEVEL ( 'unclassified' ) ;
#121 = ADVANCED_FACE ( 'NONE', ( #77 ), #3, .T. ) ;
#122 = DIRECTION ( 'NONE',  ( 1.000000000000000000, 0.000000000000000000, 0.000000000000000000 ) ) ;
#123 = MECHANICAL_CONTEXT ( 'NONE', #165, 'mechanical' ) ;
#124 = CIRCLE ( 'NONE', #84, 20.00000000000000000 ) ;
#125 = ORIENTED_EDGE ( 'NONE', *, *, #30, .T. ) ;
#126 = PERSON_AND_ORGANIZATION ( #64, #163 ) ;
#127 = UNCERTAINTY_MEASURE_WITH_UNIT (LENGTH_MEASURE( 1.000000000000000082E-05 ), #87, 'distance_accuracy_value', 'NONE');
#128 = APPROVAL ( #83, 'UNSPECIFIED' ) ;
#129 = CARTESIAN_POINT ( 'NONE',  ( -2.000000000000000000, 0.000000000000000000, 0.000000000000000000 ) ) ;
#130 = CARTESIAN_POINT ( 'NONE',  ( 2.000000000000000000, 0.000000000000000000, 0.000000000000000000 ) ) ;
#131 = DATE_AND_TIME ( #25, #103 ) ;
#132 = AXIS2_PLACEMENT_3D ( 'NONE', #23, #137, #135 ) ;
#133 = DATE_TIME_ROLE ( 'classification_date' ) ;
#134 = CARTESIAN_POINT ( 'NONE',  ( -2.000000000000000000, 0.000000000000000000, 0.000000000000000000 ) ) ;
#135 = DIRECTION ( 'NONE',  ( 1.000000000000000000, 0.000000000000000000, 0.000000000000000000 ) ) ;
#136 = APPROVAL_PERSON_ORGANIZATION ( #4, #154, #105 ) ;
#137 = DIRECTION ( 'NONE',  ( 0.000000000000000000, 0.000000000000000000, 1.000000000000000000 ) ) ;
#138 = VECTOR ( 'NONE', #156, 1000.000000000000000 ) ;
#139 = COORDINATED_UNIVERSAL_TIME_OFFSET ( 5, 0, .BEHIND. ) ;
#140 = PLANE ( 'NONE',  #106 ) ;
#141 = AXIS2_PLACEMENT_3D ( 'NONE', #151, #71, #85 ) ;
#142 = DIRECTION ( 'NONE',  ( 1.000000000000000000, 0.000000000000000000, 0.000000000000000000 ) ) ;
#143 = DIRECTION ( 'NONE',  ( 0.000000000000000000, 0.000000000000000000, -1.000000000000000000 ) ) ;
#144 = CC_DESIGN_APPROVAL ( #1, ( #38 ) ) ;
#145 = DATE_AND_TIME ( #5, #117 ) ;
#146 = APPLICATION_CONTEXT ( 'configuration controlled 3d designs of mechanical parts and assemblies' ) ;
#147 = PERSON_AND_ORGANIZATION_ROLE ( 'creator' ) ;
#148 = DIRECTION ( 'NONE',  ( 1.000000000000000000, 0.000000000000000000, 0.000000000000000000 ) ) ;
#149 = CC_DESIGN_SECURITY_CLASSIFICATION ( #48, ( #115 ) ) ;
#150 = DIRECTION ( 'NONE',  ( 1.000000000000000000, 0.000000000000000000, 0.000000000000000000 ) ) ;
#151 = CARTESIAN_POINT ( 'NONE',  ( 2.000000000000000000, 0.000000000000000000, 0.000000000000000000 ) ) ;
#152 = PRODUCT_DEFINITION_SHAPE ( 'NONE', 'NONE',  #38 ) ;
#153 = EDGE_LOOP ( 'NONE', ( #53, #7, #57, #36 ) ) ;
#154 = APPROVAL ( #11, 'UNSPECIFIED' ) ;
#155 = PERSON_AND_ORGANIZATION ( #64, #163 ) ;
#156 = DIRECTION ( 'NONE',  ( -1.000000000000000000, -0.000000000000000000, -0.000000000000000000 ) ) ;
#157 = CC_DESIGN_APPROVAL ( #128, ( #48 ) ) ;
#158 = DIRECTION ( 'NONE',  ( -1.000000000000000000, -0.000000000000000000, -0.000000000000000000 ) ) ;
#159 = CIRCLE ( 'NONE', #51, 20.00000000000000000 ) ;
#160 = APPROVAL_ROLE ( '' ) ;
#161 = PERSON_AND_ORGANIZATION ( #64, #163 ) ;
#162 = ORIENTED_EDGE ( 'NONE', *, *, #45, .F. ) ;
#163 = ORGANIZATION ( 'UNSPECIFIED', 'UNSPECIFIED', '' ) ;
#164 = ORIENTED_EDGE ( 'NONE', *, *, #99, .T. ) ;
#165 = APPLICATION_CONTEXT ( 'configuration controlled 3d designs of mechanical parts and assemblies' ) ;
#166 = CC_DESIGN_PERSON_AND_ORGANIZATION_ASSIGNMENT ( #172, #41, ( #115 ) ) ;
#167 = ADVANCED_FACE ( 'NONE', ( #98 ), #91, .T. ) ;
#168 = PERSON_AND_ORGANIZATION ( #64, #163 ) ;
#169 = CARTESIAN_POINT ( 'NONE',  ( -2.000000000000000000, 0.000000000000000000, 20.00000000000000000 ) ) ;
#170 = ORIENTED_EDGE ( 'NONE', *, *, #54, .T. ) ;
#171 = CARTESIAN_POINT ( 'NONE',  ( 2.000000000000000000, 0.000000000000000000, 20.00000000000000000 ) ) ;
#172 = PERSON_AND_ORGANIZATION ( #64, #163 ) ;
#173 = CARTESIAN_POINT ( 'NONE',  ( 2.000000000000000000, 0.000000000000000000, 0.000000000000000000 ) ) ;
#174 = PRODUCT_RELATED_PRODUCT_CATEGORY ( 'detail', '', ( #101 ) ) ;
#175 = APPROVAL_DATE_TIME ( #29, #154 ) ;
ENDSEC;
END-ISO-10303-21;
