ISO-10303-21;
HEADER;
FILE_DESCRIPTION (( 'STEP AP203' ),
    '1' );
FILE_NAME ('3592-E0W.STEP',
    '2018-11-01T18:46:42',
    ( '' ),
    ( '' ),
    'SwSTEP 2.0',
    'SolidWorks 2018',
    '' );
FILE_SCHEMA (( 'CONFIG_CONTROL_DESIGN' ));
ENDSEC;

DATA;
#1 = DIRECTION ( 'NONE',  ( -0.0000000000000000000, -0.0000000000000000000, -1.000000000000000000 ) ) ;
#2 = ADVANCED_FACE ( 'NONE', ( #174 ), #155, .T. ) ;
#3 = LOCAL_TIME ( 14, 46, 42.00000000000000000, #195 ) ;
#4 = CIRCLE ( 'NONE', #251, 12.69999999999999929 ) ;
#5 = DIRECTION ( 'NONE',  ( 0.0000000000000000000, 0.0000000000000000000, 1.000000000000000000 ) ) ;
#6 = DIRECTION ( 'NONE',  ( -0.7071067811865451302, 8.659560562354903276E-17, 0.7071067811865500152 ) ) ;
#7 = AXIS2_PLACEMENT_3D ( 'NONE', #75, #260, #182 ) ;
#8 = CARTESIAN_POINT ( 'NONE',  ( 0.0000000000000000000, 0.0000000000000000000, -2.750000000000000000 ) ) ;
#9 = ORIENTED_EDGE ( 'NONE', *, *, #211, .F. ) ;
#10 = AXIS2_PLACEMENT_3D ( 'NONE', #24, #94, #67 ) ;
#11 = PERSON_AND_ORGANIZATION_ROLE ( 'design_owner' ) ;
#12 = PERSON_AND_ORGANIZATION ( #17, #106 ) ;
#13 = VERTEX_POINT ( 'NONE', #46 ) ;
#14 = PERSON_AND_ORGANIZATION_ROLE ( 'creator' ) ;
#15 = CC_DESIGN_PERSON_AND_ORGANIZATION_ASSIGNMENT ( #103, #14, ( #274 ) ) ;
#16 = EDGE_CURVE ( 'NONE', #154, #196, #28, .T. ) ;
#17 = PERSON ( 'UNSPECIFIED', 'UNSPECIFIED', 'UNSPECIFIED', ('UNSPECIFIED'), ('UNSPECIFIED'), ('UNSPECIFIED') ) ;
#18 = DIRECTION ( 'NONE',  ( 1.000000000000000000, 0.0000000000000000000, 0.0000000000000000000 ) ) ;
#19 = ORIENTED_EDGE ( 'NONE', *, *, #211, .T. ) ;
#20 = CC_DESIGN_APPROVAL ( #176, ( #274 ) ) ;
#21 = EDGE_CURVE ( 'NONE', #196, #120, #267, .T. ) ;
#22 = CIRCLE ( 'NONE', #163, 12.45000000000000107 ) ;
#23 = ORIENTED_EDGE ( 'NONE', *, *, #132, .F. ) ;
#24 = CARTESIAN_POINT ( 'NONE',  ( 0.0000000000000000000, 0.0000000000000000000, 3.000000000000000000 ) ) ;
#25 = DATE_AND_TIME ( #125, #224 ) ;
#26 = ORIENTED_EDGE ( 'NONE', *, *, #203, .F. ) ;
#27 = DIRECTION ( 'NONE',  ( -1.000000000000000000, 0.0000000000000000000, 0.0000000000000000000 ) ) ;
#28 = LINE ( 'NONE', #233, #89 ) ;
#29 = CARTESIAN_POINT ( 'NONE',  ( 0.0000000000000000000, 0.0000000000000000000, -3.000000000000000000 ) ) ;
#30 = DIRECTION ( 'NONE',  ( -0.0000000000000000000, -0.0000000000000000000, 1.000000000000000000 ) ) ;
#31 = CARTESIAN_POINT ( 'NONE',  ( 12.69999999999999929, 1.555301434917138433E-15, -2.750000000000000000 ) ) ;
#32 = PLANE ( 'NONE',  #128 ) ;
#33 = ORIENTED_EDGE ( 'NONE', *, *, #198, .T. ) ;
#34 = PRODUCT_DEFINITION_SHAPE ( 'NONE', 'NONE',  #274 ) ;
#35 = DATE_TIME_ROLE ( 'creation_date' ) ;
#36 = CONICAL_SURFACE ( 'NONE', #122, 12.69999999999999929, 0.7853981633974447263 ) ;
#37 = ORIENTED_EDGE ( 'NONE', *, *, #76, .T. ) ;
#38 = AXIS2_PLACEMENT_3D ( 'NONE', #29, #180, #200 ) ;
#39 = FACE_OUTER_BOUND ( 'NONE', #270, .T. ) ;
#40 = ORIENTED_EDGE ( 'NONE', *, *, #21, .T. ) ;
#41 = UNCERTAINTY_MEASURE_WITH_UNIT (LENGTH_MEASURE( 1.000000000000000082E-05 ), #166, 'distance_accuracy_value', 'NONE');
#42 = PRODUCT_DEFINITION_FORMATION_WITH_SPECIFIED_SOURCE ( 'ANY', '', #167, .NOT_KNOWN. ) ;
#43 = CIRCLE ( 'NONE', #110, 12.69999999999999929 ) ;
#44 = DIRECTION ( 'NONE',  ( 1.000000000000000000, 0.0000000000000000000, 0.0000000000000000000 ) ) ;
#45 = CC_DESIGN_PERSON_AND_ORGANIZATION_ASSIGNMENT ( #146, #227, ( #42 ) ) ;
#46 = CARTESIAN_POINT ( 'NONE',  ( -12.45000000000000284, 0.0000000000000000000, 3.000000000000000000 ) ) ;
#47 = MANIFOLD_SOLID_BREP ( '3538-002-1-solid1', #129 ) ;
#48 = LOCAL_TIME ( 14, 46, 42.00000000000000000, #56 ) ;
#49 = CARTESIAN_POINT ( 'NONE',  ( 0.0000000000000000000, 0.0000000000000000000, 3.000000000000000000 ) ) ;
#50 = DIRECTION ( 'NONE',  ( -0.0000000000000000000, -0.0000000000000000000, 1.000000000000000000 ) ) ;
#51 = FACE_OUTER_BOUND ( 'NONE', #208, .T. ) ;
#52 = EDGE_LOOP ( 'NONE', ( #143, #33, #23, #250 ) ) ;
#53 = CARTESIAN_POINT ( 'NONE',  ( -12.69999999999999929, 1.555301434917138433E-15, -2.750000000000000000 ) ) ;
#54 = CARTESIAN_POINT ( 'NONE',  ( 0.0000000000000000000, 0.0000000000000000000, 0.0000000000000000000 ) ) ;
#55 = AXIS2_PLACEMENT_3D ( 'NONE', #175, #215, #44 ) ;
#56 = COORDINATED_UNIVERSAL_TIME_OFFSET ( 5, 0, .BEHIND. ) ;
#57 = VECTOR ( 'NONE', #141, 1000.000000000000000 ) ;
#58 = APPLICATION_CONTEXT ( 'configuration controlled 3d designs of mechanical parts and assemblies' ) ;
#59 = CONICAL_SURFACE ( 'NONE', #190, 12.69999999999999929, 0.7853981633974447263 ) ;
#60 = EDGE_CURVE ( 'NONE', #196, #253, #207, .T. ) ;
#61 = PERSON_AND_ORGANIZATION ( #17, #106 ) ;
#62 = ORIENTED_EDGE ( 'NONE', *, *, #107, .T. ) ;
#63 = APPROVAL ( #127, 'UNSPECIFIED' ) ;
#64 = AXIS2_PLACEMENT_3D ( 'NONE', #49, #242, #84 ) ;
#65 = FACE_OUTER_BOUND ( 'NONE', #90, .T. ) ;
#66 = ORIENTED_EDGE ( 'NONE', *, *, #136, .F. ) ;
#67 = DIRECTION ( 'NONE',  ( -1.000000000000000000, 0.0000000000000000000, 0.0000000000000000000 ) ) ;
#68 = CARTESIAN_POINT ( 'NONE',  ( 12.69999999999999929, 1.555301434917138433E-15, 3.000000000000000000 ) ) ;
#69 = DATE_AND_TIME ( #158, #3 ) ;
#70 = CC_DESIGN_DATE_AND_TIME_ASSIGNMENT ( #25, #105, ( #102 ) ) ;
#71 = CARTESIAN_POINT ( 'NONE',  ( -12.45000000000000107, 1.539993349927796539E-15, -3.000000000000000000 ) ) ;
#72 = CYLINDRICAL_SURFACE ( 'NONE', #229, 12.69999999999999929 ) ;
#73 = ORIENTED_EDGE ( 'NONE', *, *, #136, .T. ) ;
#74 = DESIGN_CONTEXT ( 'detailed design', #168, 'design' ) ;
#75 = CARTESIAN_POINT ( 'NONE',  ( 0.0000000000000000000, 0.0000000000000000000, 3.000000000000000000 ) ) ;
#76 = EDGE_CURVE ( 'NONE', #154, #13, #119, .T. ) ;
#77 = CARTESIAN_POINT ( 'NONE',  ( -12.69999999999999929, 0.0000000000000000000, -2.750000000000000000 ) ) ;
#78 = COORDINATED_UNIVERSAL_TIME_OFFSET ( 5, 0, .BEHIND. ) ;
#79 = ORIENTED_EDGE ( 'NONE', *, *, #238, .F. ) ;
#80 =( NAMED_UNIT ( * ) SI_UNIT ( $, .STERADIAN. ) SOLID_ANGLE_UNIT ( ) );
#81 = CARTESIAN_POINT ( 'NONE',  ( 0.0000000000000000000, 0.0000000000000000000, -3.000000000000000000 ) ) ;
#82 = CC_DESIGN_PERSON_AND_ORGANIZATION_ASSIGNMENT ( #12, #148, ( #42 ) ) ;
#83 =( NAMED_UNIT ( * ) PLANE_ANGLE_UNIT ( ) SI_UNIT ( $, .RADIAN. ) );
#84 = DIRECTION ( 'NONE',  ( -1.000000000000000000, 0.0000000000000000000, 0.0000000000000000000 ) ) ;
#85 = CALENDAR_DATE ( 2018, 1, 11 ) ;
#86 = PERSON_AND_ORGANIZATION ( #17, #106 ) ;
#87 = EDGE_LOOP ( 'NONE', ( #147, #66, #256, #204 ) ) ;
#88 = ADVANCED_FACE ( 'NONE', ( #240 ), #228, .T. ) ;
#89 = VECTOR ( 'NONE', #275, 1000.000000000000114 ) ;
#90 = EDGE_LOOP ( 'NONE', ( #73, #37 ) ) ;
#91 = CARTESIAN_POINT ( 'NONE',  ( 0.0000000000000000000, 0.0000000000000000000, 3.000000000000000000 ) ) ;
#92 = EDGE_CURVE ( 'NONE', #253, #236, #249, .T. ) ;
#93 = VECTOR ( 'NONE', #246, 1000.000000000000114 ) ;
#94 = DIRECTION ( 'NONE',  ( -0.0000000000000000000, -0.0000000000000000000, -1.000000000000000000 ) ) ;
#95 = ADVANCED_FACE ( 'NONE', ( #142 ), #36, .T. ) ;
#96 = CC_DESIGN_APPROVAL ( #63, ( #102 ) ) ;
#97 = DIRECTION ( 'NONE',  ( 1.000000000000000000, 0.0000000000000000000, 0.0000000000000000000 ) ) ;
#98 = AXIS2_PLACEMENT_3D ( 'NONE', #201, #5, #121 ) ;
#99 = DIRECTION ( 'NONE',  ( 1.000000000000000000, 0.0000000000000000000, 0.0000000000000000000 ) ) ;
#100 = APPLICATION_PROTOCOL_DEFINITION ( 'international standard', 'config_control_design', 1994, #58 ) ;
#101 = SECURITY_CLASSIFICATION_LEVEL ( 'unclassified' ) ;
#102 = SECURITY_CLASSIFICATION ( '', '', #101 ) ;
#103 = PERSON_AND_ORGANIZATION ( #17, #106 ) ;
#104 = FACE_OUTER_BOUND ( 'NONE', #52, .T. ) ;
#105 = DATE_TIME_ROLE ( 'classification_date' ) ;
#106 = ORGANIZATION ( 'UNSPECIFIED', 'UNSPECIFIED', '' ) ;
#107 = EDGE_CURVE ( 'NONE', #181, #138, #22, .T. ) ;
#108 = ORIENTED_EDGE ( 'NONE', *, *, #219, .F. ) ;
#109 = APPROVAL_PERSON_ORGANIZATION ( #271, #176, #205 ) ;
#110 = AXIS2_PLACEMENT_3D ( 'NONE', #179, #139, #99 ) ;
#111 = CONICAL_SURFACE ( 'NONE', #64, 12.45000000000000284, 0.7853981633974587151 ) ;
#112 = ADVANCED_FACE ( 'NONE', ( #104 ), #59, .T. ) ;
#113 = CARTESIAN_POINT ( 'NONE',  ( 0.0000000000000000000, 0.0000000000000000000, -2.750000000000000000 ) ) ;
#114 = COORDINATED_UNIVERSAL_TIME_OFFSET ( 5, 0, .BEHIND. ) ;
#115 = DIRECTION ( 'NONE',  ( -1.000000000000000000, 0.0000000000000000000, 0.0000000000000000000 ) ) ;
#116 = DATE_AND_TIME ( #85, #216 ) ;
#117 = DIRECTION ( 'NONE',  ( -0.7071067811865549002, 0.0000000000000000000, -0.7071067811865402453 ) ) ;
#118 = CARTESIAN_POINT ( 'NONE',  ( 0.0000000000000000000, 0.0000000000000000000, 2.750000000000008438 ) ) ;
#119 = CIRCLE ( 'NONE', #206, 12.45000000000000284 ) ;
#120 = VERTEX_POINT ( 'NONE', #31 ) ;
#121 = DIRECTION ( 'NONE',  ( 1.000000000000000000, 0.0000000000000000000, 0.0000000000000000000 ) ) ;
#122 = AXIS2_PLACEMENT_3D ( 'NONE', #113, #257, #220 ) ;
#123 = CC_DESIGN_APPROVAL ( #172, ( #42 ) ) ;
#124 = APPROVAL_STATUS ( 'not_yet_approved' ) ;
#125 = CALENDAR_DATE ( 2018, 1, 11 ) ;
#126 = EDGE_LOOP ( 'NONE', ( #262, #199, #241, #19 ) ) ;
#127 = APPROVAL_STATUS ( 'not_yet_approved' ) ;
#128 = AXIS2_PLACEMENT_3D ( 'NONE', #81, #183, #226 ) ;
#129 = CLOSED_SHELL ( 'NONE', ( #254, #112, #133, #2, #173, #272, #95, #88 ) ) ;
#130 = ORIENTED_EDGE ( 'NONE', *, *, #258, .T. ) ;
#131 = ADVANCED_BREP_SHAPE_REPRESENTATION ( '3592-E0W', ( #47, #169 ), #214 ) ;
#132 = EDGE_CURVE ( 'NONE', #120, #236, #4, .T. ) ;
#133 = ADVANCED_FACE ( 'NONE', ( #39 ), #72, .T. ) ;
#134 = ORIENTED_EDGE ( 'NONE', *, *, #198, .F. ) ;
#135 = CARTESIAN_POINT ( 'NONE',  ( 0.0000000000000000000, 0.0000000000000000000, 3.000000000000000000 ) ) ;
#136 = EDGE_CURVE ( 'NONE', #13, #154, #210, .T. ) ;
#137 = CALENDAR_DATE ( 2018, 1, 11 ) ;
#138 = VERTEX_POINT ( 'NONE', #140 ) ;
#139 = DIRECTION ( 'NONE',  ( -0.0000000000000000000, -0.0000000000000000000, 1.000000000000000000 ) ) ;
#140 = CARTESIAN_POINT ( 'NONE',  ( 12.45000000000000107, 0.0000000000000000000, -3.000000000000000000 ) ) ;
#141 = DIRECTION ( 'NONE',  ( -0.0000000000000000000, -0.0000000000000000000, -1.000000000000000000 ) ) ;
#142 = FACE_OUTER_BOUND ( 'NONE', #178, .T. ) ;
#143 = ORIENTED_EDGE ( 'NONE', *, *, #107, .F. ) ;
#144 = DIRECTION ( 'NONE',  ( 1.000000000000000000, 0.0000000000000000000, 0.0000000000000000000 ) ) ;
#145 = DIRECTION ( 'NONE',  ( 1.000000000000000000, 0.0000000000000000000, 0.0000000000000000000 ) ) ;
#146 = PERSON_AND_ORGANIZATION ( #17, #106 ) ;
#147 = ORIENTED_EDGE ( 'NONE', *, *, #16, .F. ) ;
#148 = PERSON_AND_ORGANIZATION_ROLE ( 'creator' ) ;
#149 = APPROVAL_ROLE ( '' ) ;
#150 = SHAPE_DEFINITION_REPRESENTATION ( #34, #131 ) ;
#151 = ORIENTED_EDGE ( 'NONE', *, *, #238, .T. ) ;
#152 = AXIS2_PLACEMENT_3D ( 'NONE', #118, #164, #18 ) ;
#153 = CIRCLE ( 'NONE', #38, 12.45000000000000107 ) ;
#154 = VERTEX_POINT ( 'NONE', #237 ) ;
#155 = CYLINDRICAL_SURFACE ( 'NONE', #10, 12.69999999999999929 ) ;
#156 = DIRECTION ( 'NONE',  ( 0.0000000000000000000, 0.0000000000000000000, -1.000000000000000000 ) ) ;
#157 = LINE ( 'NONE', #53, #273 ) ;
#158 = CALENDAR_DATE ( 2018, 1, 11 ) ;
#159 = CARTESIAN_POINT ( 'NONE',  ( 0.0000000000000000000, 0.0000000000000000000, -3.000000000000000000 ) ) ;
#160 = CARTESIAN_POINT ( 'NONE',  ( 0.0000000000000000000, 0.0000000000000000000, 3.000000000000000000 ) ) ;
#161 = PLANE ( 'NONE',  #7 ) ;
#162 = LINE ( 'NONE', #268, #93 ) ;
#163 = AXIS2_PLACEMENT_3D ( 'NONE', #159, #202, #243 ) ;
#164 = DIRECTION ( 'NONE',  ( 0.0000000000000000000, 0.0000000000000000000, -1.000000000000000000 ) ) ;
#165 = PERSON_AND_ORGANIZATION_ROLE ( 'classification_officer' ) ;
#166 =( LENGTH_UNIT ( ) NAMED_UNIT ( * ) SI_UNIT ( .MILLI., .METRE. ) );
#167 = PRODUCT ( '3592-E0W', '3592-E0W', '', ( #265 ) ) ;
#168 = APPLICATION_CONTEXT ( 'configuration controlled 3d designs of mechanical parts and assemblies' ) ;
#169 = AXIS2_PLACEMENT_3D ( 'NONE', #54, #187, #222 ) ;
#170 = VECTOR ( 'NONE', #117, 1000.000000000000114 ) ;
#171 = APPROVAL_PERSON_ORGANIZATION ( #61, #63, #248 ) ;
#172 = APPROVAL ( #263, 'UNSPECIFIED' ) ;
#173 = ADVANCED_FACE ( 'NONE', ( #65 ), #161, .T. ) ;
#174 = FACE_OUTER_BOUND ( 'NONE', #126, .T. ) ;
#175 = CARTESIAN_POINT ( 'NONE',  ( 0.0000000000000000000, 0.0000000000000000000, 2.750000000000008438 ) ) ;
#176 = APPROVAL ( #124, 'UNSPECIFIED' ) ;
#177 = COORDINATED_UNIVERSAL_TIME_OFFSET ( 5, 0, .BEHIND. ) ;
#178 = EDGE_LOOP ( 'NONE', ( #134, #108, #130, #9 ) ) ;
#179 = CARTESIAN_POINT ( 'NONE',  ( 0.0000000000000000000, 0.0000000000000000000, -2.750000000000000000 ) ) ;
#180 = DIRECTION ( 'NONE',  ( -0.0000000000000000000, -0.0000000000000000000, -1.000000000000000000 ) ) ;
#181 = VERTEX_POINT ( 'NONE', #71 ) ;
#182 = DIRECTION ( 'NONE',  ( 1.000000000000000000, 0.0000000000000000000, -0.0000000000000000000 ) ) ;
#183 = DIRECTION ( 'NONE',  ( 0.0000000000000000000, 0.0000000000000000000, 1.000000000000000000 ) ) ;
#184 = LOCAL_TIME ( 14, 46, 42.00000000000000000, #78 ) ;
#185 = ORIENTED_EDGE ( 'NONE', *, *, #92, .F. ) ;
#186 = PRODUCT_RELATED_PRODUCT_CATEGORY ( 'detail', '', ( #167 ) ) ;
#187 = DIRECTION ( 'NONE',  ( 0.0000000000000000000, 0.0000000000000000000, 1.000000000000000000 ) ) ;
#188 = FACE_OUTER_BOUND ( 'NONE', #231, .T. ) ;
#189 = ORIENTED_EDGE ( 'NONE', *, *, #76, .F. ) ;
#190 = AXIS2_PLACEMENT_3D ( 'NONE', #197, #30, #145 ) ;
#191 = APPROVAL_DATE_TIME ( #69, #176 ) ;
#192 = CC_DESIGN_PERSON_AND_ORGANIZATION_ASSIGNMENT ( #86, #165, ( #102 ) ) ;
#193 = APPROVAL_DATE_TIME ( #116, #63 ) ;
#194 = CC_DESIGN_PERSON_AND_ORGANIZATION_ASSIGNMENT ( #244, #11, ( #167 ) ) ;
#195 = COORDINATED_UNIVERSAL_TIME_OFFSET ( 5, 0, .BEHIND. ) ;
#196 = VERTEX_POINT ( 'NONE', #239 ) ;
#197 = CARTESIAN_POINT ( 'NONE',  ( 0.0000000000000000000, 0.0000000000000000000, -2.750000000000000000 ) ) ;
#198 = EDGE_CURVE ( 'NONE', #181, #236, #157, .T. ) ;
#199 = ORIENTED_EDGE ( 'NONE', *, *, #60, .T. ) ;
#200 = DIRECTION ( 'NONE',  ( 1.000000000000000000, 0.0000000000000000000, 0.0000000000000000000 ) ) ;
#201 = CARTESIAN_POINT ( 'NONE',  ( 0.0000000000000000000, 0.0000000000000000000, 3.000000000000000000 ) ) ;
#202 = DIRECTION ( 'NONE',  ( -0.0000000000000000000, -0.0000000000000000000, -1.000000000000000000 ) ) ;
#203 = EDGE_CURVE ( 'NONE', #13, #253, #232, .T. ) ;
#204 = ORIENTED_EDGE ( 'NONE', *, *, #60, .F. ) ;
#205 = APPROVAL_ROLE ( '' ) ;
#206 = AXIS2_PLACEMENT_3D ( 'NONE', #91, #234, #97 ) ;
#207 = CIRCLE ( 'NONE', #55, 12.69999999999999929 ) ;
#208 = EDGE_LOOP ( 'NONE', ( #213, #62 ) ) ;
#209 = CALENDAR_DATE ( 2018, 1, 11 ) ;
#210 = CIRCLE ( 'NONE', #98, 12.45000000000000284 ) ;
#211 = EDGE_CURVE ( 'NONE', #236, #120, #43, .T. ) ;
#212 = CIRCLE ( 'NONE', #152, 12.69999999999999929 ) ;
#213 = ORIENTED_EDGE ( 'NONE', *, *, #219, .T. ) ;
#214 =( GEOMETRIC_REPRESENTATION_CONTEXT ( 3 ) GLOBAL_UNCERTAINTY_ASSIGNED_CONTEXT ( ( #41 ) ) GLOBAL_UNIT_ASSIGNED_CONTEXT ( ( #166, #83, #80 ) ) REPRESENTATION_CONTEXT ( 'NONE', 'WORKASPACE' ) );
#215 = DIRECTION ( 'NONE',  ( 0.0000000000000000000, 0.0000000000000000000, -1.000000000000000000 ) ) ;
#216 = LOCAL_TIME ( 14, 46, 42.00000000000000000, #114 ) ;
#217 = DIRECTION ( 'NONE',  ( -0.0000000000000000000, -0.0000000000000000000, -1.000000000000000000 ) ) ;
#218 = CARTESIAN_POINT ( 'NONE',  ( -12.69999999999999929, 0.0000000000000000000, 2.750000000000008438 ) ) ;
#219 = EDGE_CURVE ( 'NONE', #138, #181, #153, .T. ) ;
#220 = DIRECTION ( 'NONE',  ( 1.000000000000000000, 0.0000000000000000000, 0.0000000000000000000 ) ) ;
#221 = CARTESIAN_POINT ( 'NONE',  ( -12.69999999999999929, 0.0000000000000000000, 3.000000000000000000 ) ) ;
#222 = DIRECTION ( 'NONE',  ( 1.000000000000000000, 0.0000000000000000000, 0.0000000000000000000 ) ) ;
#223 = CC_DESIGN_DATE_AND_TIME_ASSIGNMENT ( #259, #35, ( #274 ) ) ;
#224 = LOCAL_TIME ( 14, 46, 42.00000000000000000, #177 ) ;
#225 = VECTOR ( 'NONE', #1, 1000.000000000000000 ) ;
#226 = DIRECTION ( 'NONE',  ( 1.000000000000000000, 0.0000000000000000000, -0.0000000000000000000 ) ) ;
#227 = PERSON_AND_ORGANIZATION_ROLE ( 'design_supplier' ) ;
#228 = CONICAL_SURFACE ( 'NONE', #269, 12.45000000000000284, 0.7853981633974587151 ) ;
#229 = AXIS2_PLACEMENT_3D ( 'NONE', #160, #217, #27 ) ;
#230 = PERSON_AND_ORGANIZATION ( #17, #106 ) ;
#231 = EDGE_LOOP ( 'NONE', ( #189, #245, #79, #26 ) ) ;
#232 = LINE ( 'NONE', #261, #170 ) ;
#233 = CARTESIAN_POINT ( 'NONE',  ( 12.45000000000000284, 1.524685264938455237E-15, 3.000000000000000000 ) ) ;
#234 = DIRECTION ( 'NONE',  ( 0.0000000000000000000, 0.0000000000000000000, 1.000000000000000000 ) ) ;
#235 = DATE_AND_TIME ( #209, #184 ) ;
#236 = VERTEX_POINT ( 'NONE', #77 ) ;
#237 = CARTESIAN_POINT ( 'NONE',  ( 12.45000000000000284, 1.539993349927796736E-15, 3.000000000000000000 ) ) ;
#238 = EDGE_CURVE ( 'NONE', #253, #196, #212, .T. ) ;
#239 = CARTESIAN_POINT ( 'NONE',  ( 12.69999999999999929, 1.555301434917138433E-15, 2.750000000000008438 ) ) ;
#240 = FACE_OUTER_BOUND ( 'NONE', #87, .T. ) ;
#241 = ORIENTED_EDGE ( 'NONE', *, *, #92, .T. ) ;
#242 = DIRECTION ( 'NONE',  ( 0.0000000000000000000, 0.0000000000000000000, -1.000000000000000000 ) ) ;
#243 = DIRECTION ( 'NONE',  ( 1.000000000000000000, 0.0000000000000000000, 0.0000000000000000000 ) ) ;
#244 = PERSON_AND_ORGANIZATION ( #17, #106 ) ;
#245 = ORIENTED_EDGE ( 'NONE', *, *, #16, .T. ) ;
#246 = DIRECTION ( 'NONE',  ( 0.7071067811865451302, 0.0000000000000000000, 0.7071067811865500152 ) ) ;
#247 = APPLICATION_PROTOCOL_DEFINITION ( 'international standard', 'config_control_design', 1994, #168 ) ;
#248 = APPROVAL_ROLE ( '' ) ;
#249 = LINE ( 'NONE', #221, #57 ) ;
#250 = ORIENTED_EDGE ( 'NONE', *, *, #258, .F. ) ;
#251 = AXIS2_PLACEMENT_3D ( 'NONE', #8, #50, #144 ) ;
#252 = APPROVAL_DATE_TIME ( #235, #172 ) ;
#253 = VERTEX_POINT ( 'NONE', #218 ) ;
#254 = ADVANCED_FACE ( 'NONE', ( #188 ), #111, .T. ) ;
#255 = ORIENTED_EDGE ( 'NONE', *, *, #132, .T. ) ;
#256 = ORIENTED_EDGE ( 'NONE', *, *, #203, .T. ) ;
#257 = DIRECTION ( 'NONE',  ( -0.0000000000000000000, -0.0000000000000000000, 1.000000000000000000 ) ) ;
#258 = EDGE_CURVE ( 'NONE', #138, #120, #162, .T. ) ;
#259 = DATE_AND_TIME ( #137, #48 ) ;
#260 = DIRECTION ( 'NONE',  ( 0.0000000000000000000, 0.0000000000000000000, 1.000000000000000000 ) ) ;
#261 = CARTESIAN_POINT ( 'NONE',  ( -12.45000000000000284, 0.0000000000000000000, 3.000000000000000000 ) ) ;
#262 = ORIENTED_EDGE ( 'NONE', *, *, #21, .F. ) ;
#263 = APPROVAL_STATUS ( 'not_yet_approved' ) ;
#264 = CC_DESIGN_SECURITY_CLASSIFICATION ( #102, ( #42 ) ) ;
#265 = MECHANICAL_CONTEXT ( 'NONE', #58, 'mechanical' ) ;
#266 = APPROVAL_PERSON_ORGANIZATION ( #230, #172, #149 ) ;
#267 = LINE ( 'NONE', #68, #225 ) ;
#268 = CARTESIAN_POINT ( 'NONE',  ( 12.69999999999999929, 0.0000000000000000000, -2.750000000000000000 ) ) ;
#269 = AXIS2_PLACEMENT_3D ( 'NONE', #135, #156, #115 ) ;
#270 = EDGE_LOOP ( 'NONE', ( #151, #40, #255, #185 ) ) ;
#271 = PERSON_AND_ORGANIZATION ( #17, #106 ) ;
#272 = ADVANCED_FACE ( 'NONE', ( #51 ), #32, .F. ) ;
#273 = VECTOR ( 'NONE', #6, 1000.000000000000114 ) ;
#274 = PRODUCT_DEFINITION ( 'UNKNOWN', '', #42, #74 ) ;
#275 = DIRECTION ( 'NONE',  ( 0.7071067811865549002, 8.659560562355021605E-17, -0.7071067811865402453 ) ) ;
ENDSEC;
END-ISO-10303-21;
