ISO-10303-21;
HEADER;
FILE_DESCRIPTION (( 'STEP AP214' ),
    '1' );
FILE_NAME ('3461-E0W.STEP',
    '2009-12-21T16:59:46',
    ( ' ' ),
    ( ' ' ),
    'SwSTEP 2.0',
    'SolidWorks 2009',
    '' );
FILE_SCHEMA (( 'AUTOMOTIVE_DESIGN' ));
ENDSEC;

DATA;
#1 = PRESENTATION_STYLE_ASSIGNMENT (( #36 ) ) ;
#2 =( LENGTH_UNIT ( ) NAMED_UNIT ( * ) SI_UNIT ( .MILLI., .METRE. ) );
#3 = STYLED_ITEM ( 'NONE', ( #1 ), #220 ) ;
#4 = PRESENTATION_LAYER_ASSIGNMENT (  '', '', ( #3 ) ) ;
#5 = MECHANICAL_DESIGN_GEOMETRIC_PRESENTATION_REPRESENTATION (  '', ( #3 ), #7 ) ;
#6 =( LENGTH_UNIT ( ) NAMED_UNIT ( * ) SI_UNIT ( .MILLI., .METRE. ) );
#7 =( GEOMETRIC_REPRESENTATION_CONTEXT ( 3 ) GLOBAL_UNCERTAINTY_ASSIGNED_CONTEXT ( ( #8 ) ) GLOBAL_UNIT_ASSIGNED_CONTEXT ( ( #6, #14, #15 ) ) REPRESENTATION_CONTEXT ( 'NONE', 'WORKASPACE' ) );
#8 = UNCERTAINTY_MEASURE_WITH_UNIT (LENGTH_MEASURE( 1.000000000000000100E-005 ), #6, 'distance_accuracy_value', 'NONE');
#9 = PRESENTATION_LAYER_ASSIGNMENT (  '', '', ( #10 ) ) ;
#10 = STYLED_ITEM ( 'NONE', ( #16 ), #221 ) ;
#11 = MECHANICAL_DESIGN_GEOMETRIC_PRESENTATION_REPRESENTATION (  '', ( #10 ), #26 ) ;
#12 = COLOUR_RGB ( '',0.9568627450980391500, 0.9490196078431372100, 0.9607843137254902200 ) ;
#13 = FACE_OUTER_BOUND ( 'NONE', #219, .T. ) ;
#14 =( NAMED_UNIT ( * ) PLANE_ANGLE_UNIT ( ) SI_UNIT ( $, .RADIAN. ) );
#15 =( NAMED_UNIT ( * ) SI_UNIT ( $, .STERADIAN. ) SOLID_ANGLE_UNIT ( ) );
#16 = PRESENTATION_STYLE_ASSIGNMENT (( #17 ) ) ;
#17 = SURFACE_STYLE_USAGE ( .BOTH. , #18 ) ;
#18 = SURFACE_SIDE_STYLE ('',( #19 ) ) ;
#19 = SURFACE_STYLE_FILL_AREA ( #20 ) ;
#20 = FILL_AREA_STYLE ('',( #21 ) ) ;
#21 = FILL_AREA_STYLE_COLOUR ( '', #12 ) ;
#22 = SPHERICAL_SURFACE ( 'NONE', #30, 65.79999999999999700 ) ;
#23 =( NAMED_UNIT ( * ) SI_UNIT ( $, .STERADIAN. ) SOLID_ANGLE_UNIT ( ) );
#24 = DIRECTION ( 'NONE',  ( -1.000000000000000000, 0.0000000000000000000, 0.0000000000000000000 ) ) ;
#25 = DIRECTION ( 'NONE',  ( 0.0000000000000000000, 1.000000000000000000, 0.0000000000000000000 ) ) ;
#26 =( GEOMETRIC_REPRESENTATION_CONTEXT ( 3 ) GLOBAL_UNCERTAINTY_ASSIGNED_CONTEXT ( ( #28 ) ) GLOBAL_UNIT_ASSIGNED_CONTEXT ( ( #2, #27, #23 ) ) REPRESENTATION_CONTEXT ( 'NONE', 'WORKASPACE' ) );
#27 =( NAMED_UNIT ( * ) PLANE_ANGLE_UNIT ( ) SI_UNIT ( $, .RADIAN. ) );
#28 = UNCERTAINTY_MEASURE_WITH_UNIT (LENGTH_MEASURE( 1.000000000000000100E-005 ), #2, 'distance_accuracy_value', 'NONE');
#29 = CARTESIAN_POINT ( 'NONE',  ( 0.0000000000000000000, 0.0000000000000000000, -68.09995881381058800 ) ) ;
#30 = AXIS2_PLACEMENT_3D ( 'NONE', #29, #24, #25 ) ;
#31 = DIRECTION ( 'NONE',  ( 0.0000000000000000000, 1.000000000000000000, 0.0000000000000000000 ) ) ;
#32 = CARTESIAN_POINT ( 'NONE',  ( 0.0000000000000000000, 0.0000000000000000000, -68.09995881381058800 ) ) ;
#33 = SPHERICAL_SURFACE ( 'NONE', #35, 65.79999999999999700 ) ;
#34 = DIRECTION ( 'NONE',  ( -1.000000000000000000, 0.0000000000000000000, 0.0000000000000000000 ) ) ;
#35 = AXIS2_PLACEMENT_3D ( 'NONE', #32, #34, #31 ) ;
#36 = SURFACE_STYLE_USAGE ( .BOTH. , #37 ) ;
#37 = SURFACE_SIDE_STYLE ('',( #38 ) ) ;
#38 = SURFACE_STYLE_FILL_AREA ( #39 ) ;
#39 = FILL_AREA_STYLE ('',( #40 ) ) ;
#40 = FILL_AREA_STYLE_COLOUR ( '', #41 ) ;
#41 = COLOUR_RGB ( '',0.7960784313725489700, 0.8235294117647058400, 0.9372549019607843100 ) ;
#42 = DIRECTION ( 'NONE',  ( 1.000000000000000000, 0.0000000000000000000, 0.0000000000000000000 ) ) ;
#43 = DIRECTION ( 'NONE',  ( 0.0000000000000000000, 0.0000000000000000000, 1.000000000000000000 ) ) ;
#44 = CARTESIAN_POINT ( 'NONE',  ( 0.0000000000000000000, 0.0000000000000000000, 0.0000000000000000000 ) ) ;
#45 = AXIS2_PLACEMENT_3D ( 'NONE', #44, #43, #42 ) ;
#46 = DIRECTION ( 'NONE',  ( 1.000000000000000000, 0.0000000000000000000, 0.0000000000000000000 ) ) ;
#47 =( GEOMETRIC_REPRESENTATION_CONTEXT ( 3 ) GLOBAL_UNCERTAINTY_ASSIGNED_CONTEXT ( ( #48 ) ) GLOBAL_UNIT_ASSIGNED_CONTEXT ( ( #80, #79, #78 ) ) REPRESENTATION_CONTEXT ( 'NONE', 'WORKASPACE' ) );
#48 = UNCERTAINTY_MEASURE_WITH_UNIT (LENGTH_MEASURE( 1.000000000000000100E-005 ), #80, 'distance_accuracy_value', 'NONE');
#49 = DIRECTION ( 'NONE',  ( -0.0000000000000000000, -0.0000000000000000000, 1.000000000000000000 ) ) ;
#50 = CARTESIAN_POINT ( 'NONE',  ( 25.39999999999999900, 0.0000000000000000000, -7.400041186189393500 ) ) ;
#51 = DIRECTION ( 'NONE',  ( -0.0000000000000000000, -0.0000000000000000000, 1.000000000000000000 ) ) ;
#52 = AXIS2_PLACEMENT_3D ( 'NONE', #53, #51, #87 ) ;
#53 = CARTESIAN_POINT ( 'NONE',  ( 0.0000000000000000000, 0.0000000000000000000, 11.45514494103044900 ) ) ;
#54 = CYLINDRICAL_SURFACE ( 'NONE', #52, 25.39999999999999900 ) ;
#55 = STYLED_ITEM ( 'NONE', ( #56 ), #231 ) ;
#56 = PRESENTATION_STYLE_ASSIGNMENT (( #57 ) ) ;
#57 = SURFACE_STYLE_USAGE ( .BOTH. , #58 ) ;
#58 = SURFACE_SIDE_STYLE ('',( #59 ) ) ;
#59 = SURFACE_STYLE_FILL_AREA ( #60 ) ;
#60 = FILL_AREA_STYLE ('',( #61 ) ) ;
#61 = FILL_AREA_STYLE_COLOUR ( '', #90 ) ;
#62 = PRESENTATION_LAYER_ASSIGNMENT (  '', '', ( #63 ) ) ;
#63 = STYLED_ITEM ( 'NONE', ( #64 ), #71 ) ;
#64 = PRESENTATION_STYLE_ASSIGNMENT (( #65 ) ) ;
#65 = SURFACE_STYLE_USAGE ( .BOTH. , #66 ) ;
#66 = SURFACE_SIDE_STYLE ('',( #67 ) ) ;
#67 = SURFACE_STYLE_FILL_AREA ( #68 ) ;
#68 = FILL_AREA_STYLE ('',( #69 ) ) ;
#69 = FILL_AREA_STYLE_COLOUR ( '', #70 ) ;
#70 = COLOUR_RGB ( '',0.7960784313725489700, 0.8235294117647058400, 0.9372549019607843100 ) ;
#71 = ADVANCED_BREP_SHAPE_REPRESENTATION ( '3461-E0W', ( #220, #45 ), #95 ) ;
#72 = CARTESIAN_POINT ( 'NONE',  ( -3.110500138708840100E-015, -25.40000000000001300, -7.400041186189390000 ) ) ;
#73 = AXIS2_PLACEMENT_3D ( 'NONE', #77, #49, #46 ) ;
#74 =( NAMED_UNIT ( * ) SI_UNIT ( $, .STERADIAN. ) SOLID_ANGLE_UNIT ( ) );
#75 =( NAMED_UNIT ( * ) PLANE_ANGLE_UNIT ( ) SI_UNIT ( $, .RADIAN. ) );
#76 =( LENGTH_UNIT ( ) NAMED_UNIT ( * ) SI_UNIT ( .MILLI., .METRE. ) );
#77 = CARTESIAN_POINT ( 'NONE',  ( 0.0000000000000000000, 0.0000000000000000000, -7.400041186189393500 ) ) ;
#78 =( NAMED_UNIT ( * ) SI_UNIT ( $, .STERADIAN. ) SOLID_ANGLE_UNIT ( ) );
#79 =( NAMED_UNIT ( * ) PLANE_ANGLE_UNIT ( ) SI_UNIT ( $, .RADIAN. ) );
#80 =( LENGTH_UNIT ( ) NAMED_UNIT ( * ) SI_UNIT ( .MILLI., .METRE. ) );
#81 = MECHANICAL_DESIGN_GEOMETRIC_PRESENTATION_REPRESENTATION (  '', ( #63 ), #47 ) ;
#82 = DIRECTION ( 'NONE',  ( 1.000000000000000000, 0.0000000000000000000, 0.0000000000000000000 ) ) ;
#83 = DIRECTION ( 'NONE',  ( -0.0000000000000000000, -0.0000000000000000000, 1.000000000000000000 ) ) ;
#84 = CARTESIAN_POINT ( 'NONE',  ( 0.0000000000000000000, 0.0000000000000000000, -6.346116582428510200 ) ) ;
#85 = AXIS2_PLACEMENT_3D ( 'NONE', #84, #83, #82 ) ;
#86 = CIRCLE ( 'NONE', #85, 25.39999999999999900 ) ;
#87 = DIRECTION ( 'NONE',  ( 1.000000000000000000, 0.0000000000000000000, 0.0000000000000000000 ) ) ;
#88 = UNCERTAINTY_MEASURE_WITH_UNIT (LENGTH_MEASURE( 1.000000000000000100E-005 ), #102, 'distance_accuracy_value', 'NONE');
#89 =( NAMED_UNIT ( * ) SI_UNIT ( $, .STERADIAN. ) SOLID_ANGLE_UNIT ( ) );
#90 = COLOUR_RGB ( '',0.9568627450980391500, 0.9490196078431372100, 0.9607843137254902200 ) ;
#91 = FACE_OUTER_BOUND ( 'NONE', #233, .T. ) ;
#92 = CARTESIAN_POINT ( 'NONE',  ( 0.0000000000000000000, 4.028954904075621500E-015, -2.299958813810593300 ) ) ;
#93 = DIRECTION ( 'NONE',  ( -1.224606353822377500E-016, -1.000000000000000000, 0.0000000000000000000 ) ) ;
#94 = CIRCLE ( 'NONE', #73, 25.39999999999999900 ) ;
#95 =( GEOMETRIC_REPRESENTATION_CONTEXT ( 3 ) GLOBAL_UNCERTAINTY_ASSIGNED_CONTEXT ( ( #96 ) ) GLOBAL_UNIT_ASSIGNED_CONTEXT ( ( #76, #75, #74 ) ) REPRESENTATION_CONTEXT ( 'NONE', 'WORKASPACE' ) );
#96 = UNCERTAINTY_MEASURE_WITH_UNIT (LENGTH_MEASURE( 1.000000000000000100E-005 ), #76, 'distance_accuracy_value', 'NONE');
#97 = DIRECTION ( 'NONE',  ( -1.000000000000000000, 1.224606353822377300E-016, 0.0000000000000000000 ) ) ;
#98 = CARTESIAN_POINT ( 'NONE',  ( 0.0000000000000000000, 0.0000000000000000000, -68.09995881381058800 ) ) ;
#99 = AXIS2_PLACEMENT_3D ( 'NONE', #98, #97, #93 ) ;
#100 = CIRCLE ( 'NONE', #99, 65.79999999999999700 ) ;
#101 =( NAMED_UNIT ( * ) PLANE_ANGLE_UNIT ( ) SI_UNIT ( $, .RADIAN. ) );
#102 =( LENGTH_UNIT ( ) NAMED_UNIT ( * ) SI_UNIT ( .MILLI., .METRE. ) );
#103 = MECHANICAL_DESIGN_GEOMETRIC_PRESENTATION_REPRESENTATION (  '', ( #55 ), #105 ) ;
#104 = PRESENTATION_LAYER_ASSIGNMENT (  '', '', ( #55 ) ) ;
#105 =( GEOMETRIC_REPRESENTATION_CONTEXT ( 3 ) GLOBAL_UNCERTAINTY_ASSIGNED_CONTEXT ( ( #88 ) ) GLOBAL_UNIT_ASSIGNED_CONTEXT ( ( #102, #101, #89 ) ) REPRESENTATION_CONTEXT ( 'NONE', 'WORKASPACE' ) );
#106 = PRODUCT ( '3461-E0W', '3461-E0W', '', ( #107 ) ) ;
#107 = PRODUCT_CONTEXT ( 'NONE', #113, 'mechanical' ) ;
#108 = APPLICATION_PROTOCOL_DEFINITION ( 'draft international standard', 'automotive_design', 1998, #113 ) ;
#109 = SHAPE_DEFINITION_REPRESENTATION ( #114, #71 ) ;
#110 = PRODUCT_DEFINITION_CONTEXT ( 'detailed design', #112, 'design' ) ;
#111 = APPLICATION_PROTOCOL_DEFINITION ( 'draft international standard', 'automotive_design', 1998, #112 ) ;
#112 = APPLICATION_CONTEXT ( 'automotive_design' ) ;
#113 = APPLICATION_CONTEXT ( 'automotive_design' ) ;
#114 = PRODUCT_DEFINITION_SHAPE ( 'NONE', 'NONE',  #117 ) ;
#115 = PRODUCT_RELATED_PRODUCT_CATEGORY ( 'part', '', ( #106 ) ) ;
#116 = PRODUCT_DEFINITION_FORMATION_WITH_SPECIFIED_SOURCE ( 'ANY', '', #106, .NOT_KNOWN. ) ;
#117 = PRODUCT_DEFINITION ( 'UNKNOWN', '', #116, #110 ) ;
#118 =( GEOMETRIC_REPRESENTATION_CONTEXT ( 3 ) GLOBAL_UNCERTAINTY_ASSIGNED_CONTEXT ( ( #119 ) ) GLOBAL_UNIT_ASSIGNED_CONTEXT ( ( #122, #121, #120 ) ) REPRESENTATION_CONTEXT ( 'NONE', 'WORKASPACE' ) );
#119 = UNCERTAINTY_MEASURE_WITH_UNIT (LENGTH_MEASURE( 1.000000000000000100E-005 ), #122, 'distance_accuracy_value', 'NONE');
#120 =( NAMED_UNIT ( * ) SI_UNIT ( $, .STERADIAN. ) SOLID_ANGLE_UNIT ( ) );
#121 =( NAMED_UNIT ( * ) PLANE_ANGLE_UNIT ( ) SI_UNIT ( $, .RADIAN. ) );
#122 =( LENGTH_UNIT ( ) NAMED_UNIT ( * ) SI_UNIT ( .MILLI., .METRE. ) );
#123 = MECHANICAL_DESIGN_GEOMETRIC_PRESENTATION_REPRESENTATION (  '', ( #125 ), #118 ) ;
#124 = PRESENTATION_LAYER_ASSIGNMENT (  '', '', ( #125 ) ) ;
#125 = STYLED_ITEM ( 'NONE', ( #126 ), #214 ) ;
#126 = PRESENTATION_STYLE_ASSIGNMENT (( #127 ) ) ;
#127 = SURFACE_STYLE_USAGE ( .BOTH. , #128 ) ;
#128 = SURFACE_SIDE_STYLE ('',( #129 ) ) ;
#129 = SURFACE_STYLE_FILL_AREA ( #130 ) ;
#130 = FILL_AREA_STYLE ('',( #138 ) ) ;
#131 = COLOUR_RGB ( '',0.9568627450980391500, 0.9490196078431372100, 0.9607843137254902200 ) ;
#132 = FACE_OUTER_BOUND ( 'NONE', #215, .T. ) ;
#133 = DIRECTION ( 'NONE',  ( 1.000000000000000000, 0.0000000000000000000, 0.0000000000000000000 ) ) ;
#134 = DIRECTION ( 'NONE',  ( -0.0000000000000000000, -0.0000000000000000000, 1.000000000000000000 ) ) ;
#135 = CARTESIAN_POINT ( 'NONE',  ( 0.0000000000000000000, 0.0000000000000000000, -7.400041186189393500 ) ) ;
#136 = AXIS2_PLACEMENT_3D ( 'NONE', #135, #134, #133 ) ;
#137 = CIRCLE ( 'NONE', #136, 25.39999999999999900 ) ;
#138 = FILL_AREA_STYLE_COLOUR ( '', #131 ) ;
#139 = CARTESIAN_POINT ( 'NONE',  ( -25.39999999999999900, 3.110500138708838200E-015, -7.400041186189393500 ) ) ;
#140 = CARTESIAN_POINT ( 'NONE',  ( -25.39999999999999900, 3.110500138708838200E-015, -6.346116582428510200 ) ) ;
#141 = CARTESIAN_POINT ( 'NONE',  ( 0.0000000000000000000, 25.40000000000001300, -7.400041186189390000 ) ) ;
#142 = DIRECTION ( 'NONE',  ( 0.0000000000000000000, 0.0000000000000000000, -1.000000000000000000 ) ) ;
#143 = ORIENTED_EDGE ( 'NONE', *, *, #236, .T. ) ;
#144 = EDGE_CURVE ( 'NONE', #148, #149, #268, .T. ) ;
#145 = ORIENTED_EDGE ( 'NONE', *, *, #146, .F. ) ;
#146 = EDGE_CURVE ( 'NONE', #156, #149, #263, .T. ) ;
#147 = EDGE_CURVE ( 'NONE', #171, #148, #258, .T. ) ;
#148 = VERTEX_POINT ( 'NONE', #253 ) ;
#149 = VERTEX_POINT ( 'NONE', #252 ) ;
#150 = ORIENTED_EDGE ( 'NONE', *, *, #144, .T. ) ;
#151 = EDGE_LOOP ( 'NONE', ( #168, #176, #150, #145 ) ) ;
#152 = ADVANCED_FACE ( 'NONE', ( #251 ), #294, .T. ) ;
#153 = EDGE_CURVE ( 'NONE', #225, #154, #289, .T. ) ;
#154 = VERTEX_POINT ( 'NONE', #285 ) ;
#155 = ORIENTED_EDGE ( 'NONE', *, *, #153, .F. ) ;
#156 = VERTEX_POINT ( 'NONE', #284 ) ;
#157 = EDGE_CURVE ( 'NONE', #156, #171, #283, .T. ) ;
#158 = ORIENTED_EDGE ( 'NONE', *, *, #159, .F. ) ;
#159 = EDGE_CURVE ( 'NONE', #154, #156, #278, .T. ) ;
#160 = EDGE_CURVE ( 'NONE', #173, #171, #272, .T. ) ;
#161 = EDGE_CURVE ( 'NONE', #169, #173, #321, .T. ) ;
#162 = ADVANCED_FACE ( 'NONE', ( #317 ), #302, .T. ) ;
#163 = EDGE_CURVE ( 'NONE', #225, #169, #301, .T. ) ;
#164 = ADVANCED_FACE ( 'NONE', ( #201 ), #186, .T. ) ;
#165 = EDGE_CURVE ( 'NONE', #169, #228, #185, .T. ) ;
#166 = ORIENTED_EDGE ( 'NONE', *, *, #157, .F. ) ;
#167 = ORIENTED_EDGE ( 'NONE', *, *, #163, .F. ) ;
#168 = ORIENTED_EDGE ( 'NONE', *, *, #157, .T. ) ;
#169 = VERTEX_POINT ( 'NONE', #141 ) ;
#170 = ORIENTED_EDGE ( 'NONE', *, *, #160, .T. ) ;
#171 = VERTEX_POINT ( 'NONE', #140 ) ;
#172 = EDGE_LOOP ( 'NONE', ( #235, #143, #234, #230 ) ) ;
#173 = VERTEX_POINT ( 'NONE', #139 ) ;
#174 = ORIENTED_EDGE ( 'NONE', *, *, #161, .T. ) ;
#175 = ORIENTED_EDGE ( 'NONE', *, *, #163, .T. ) ;
#176 = ORIENTED_EDGE ( 'NONE', *, *, #147, .T. ) ;
#177 = EDGE_LOOP ( 'NONE', ( #175, #174, #170, #166, #158, #155 ) ) ;
#178 = DIRECTION ( 'NONE',  ( 1.000000000000000000, -0.0000000000000000000, 0.0000000000000000000 ) ) ;
#179 = CARTESIAN_POINT ( 'NONE',  ( 0.0000000000000000000, 0.0000000000000000000, -68.09995881381058800 ) ) ;
#180 = AXIS2_PLACEMENT_3D ( 'NONE', #179, #178, #142 ) ;
#181 = DIRECTION ( 'NONE',  ( 1.000000000000000000, 0.0000000000000000000, 0.0000000000000000000 ) ) ;
#182 = DIRECTION ( 'NONE',  ( -0.0000000000000000000, -0.0000000000000000000, 1.000000000000000000 ) ) ;
#183 = CARTESIAN_POINT ( 'NONE',  ( 0.0000000000000000000, 0.0000000000000000000, 11.45514494103044900 ) ) ;
#184 = AXIS2_PLACEMENT_3D ( 'NONE', #183, #182, #181 ) ;
#185 = CIRCLE ( 'NONE', #180, 65.79999999999999700 ) ;
#186 = CYLINDRICAL_SURFACE ( 'NONE', #184, 25.39999999999999900 ) ;
#187 =( GEOMETRIC_REPRESENTATION_CONTEXT ( 3 ) GLOBAL_UNCERTAINTY_ASSIGNED_CONTEXT ( ( #188 ) ) GLOBAL_UNIT_ASSIGNED_CONTEXT ( ( #191, #190, #189 ) ) REPRESENTATION_CONTEXT ( 'NONE', 'WORKASPACE' ) );
#188 = UNCERTAINTY_MEASURE_WITH_UNIT (LENGTH_MEASURE( 1.000000000000000100E-005 ), #191, 'distance_accuracy_value', 'NONE');
#189 =( NAMED_UNIT ( * ) SI_UNIT ( $, .STERADIAN. ) SOLID_ANGLE_UNIT ( ) );
#190 =( NAMED_UNIT ( * ) PLANE_ANGLE_UNIT ( ) SI_UNIT ( $, .RADIAN. ) );
#191 =( LENGTH_UNIT ( ) NAMED_UNIT ( * ) SI_UNIT ( .MILLI., .METRE. ) );
#192 = MECHANICAL_DESIGN_GEOMETRIC_PRESENTATION_REPRESENTATION (  '', ( #194 ), #187 ) ;
#193 = PRESENTATION_LAYER_ASSIGNMENT (  '', '', ( #194 ) ) ;
#194 = STYLED_ITEM ( 'NONE', ( #195 ), #164 ) ;
#195 = PRESENTATION_STYLE_ASSIGNMENT (( #196 ) ) ;
#196 = SURFACE_STYLE_USAGE ( .BOTH. , #197 ) ;
#197 = SURFACE_SIDE_STYLE ('',( #198 ) ) ;
#198 = SURFACE_STYLE_FILL_AREA ( #199 ) ;
#199 = FILL_AREA_STYLE ('',( #296 ) ) ;
#200 = COLOUR_RGB ( '',0.9568627450980391500, 0.9490196078431372100, 0.9607843137254902200 ) ;
#201 = FACE_OUTER_BOUND ( 'NONE', #177, .T. ) ;
#202 = DIRECTION ( 'NONE',  ( 1.000000000000000000, 0.0000000000000000000, 0.0000000000000000000 ) ) ;
#203 = DIRECTION ( 'NONE',  ( -0.0000000000000000000, -0.0000000000000000000, 1.000000000000000000 ) ) ;
#204 = CARTESIAN_POINT ( 'NONE',  ( 0.0000000000000000000, 0.0000000000000000000, -7.400041186189393500 ) ) ;
#205 = AXIS2_PLACEMENT_3D ( 'NONE', #204, #203, #202 ) ;
#206 = ORIENTED_EDGE ( 'NONE', *, *, #165, .T. ) ;
#207 = CLOSED_SHELL ( 'NONE', ( #221, #164, #152, #162, #231, #214 ) ) ;
#208 = ORIENTED_EDGE ( 'NONE', *, *, #209, .T. ) ;
#209 = EDGE_CURVE ( 'NONE', #173, #223, #137, .T. ) ;
#210 = ORIENTED_EDGE ( 'NONE', *, *, #224, .T. ) ;
#211 = ORIENTED_EDGE ( 'NONE', *, *, #153, .T. ) ;
#212 = ORIENTED_EDGE ( 'NONE', *, *, #236, .F. ) ;
#213 = ORIENTED_EDGE ( 'NONE', *, *, #147, .F. ) ;
#214 = ADVANCED_FACE ( 'NONE', ( #132 ), #22, .F. ) ;
#215 = EDGE_LOOP ( 'NONE', ( #216, #217, #218, #206 ) ) ;
#216 = ORIENTED_EDGE ( 'NONE', *, *, #227, .F. ) ;
#217 = ORIENTED_EDGE ( 'NONE', *, *, #209, .F. ) ;
#218 = ORIENTED_EDGE ( 'NONE', *, *, #161, .F. ) ;
#219 = EDGE_LOOP ( 'NONE', ( #222, #226, #229, #167 ) ) ;
#220 = MANIFOLD_SOLID_BREP ( 'NONE', #207 ) ;
#221 = ADVANCED_FACE ( 'NONE', ( #13 ), #33, .F. ) ;
#222 = ORIENTED_EDGE ( 'NONE', *, *, #224, .F. ) ;
#223 = VERTEX_POINT ( 'NONE', #72 ) ;
#224 = EDGE_CURVE ( 'NONE', #223, #225, #94, .T. ) ;
#225 = VERTEX_POINT ( 'NONE', #50 ) ;
#226 = ORIENTED_EDGE ( 'NONE', *, *, #227, .T. ) ;
#227 = EDGE_CURVE ( 'NONE', #223, #228, #100, .T. ) ;
#228 = VERTEX_POINT ( 'NONE', #92 ) ;
#229 = ORIENTED_EDGE ( 'NONE', *, *, #165, .F. ) ;
#230 = ORIENTED_EDGE ( 'NONE', *, *, #146, .T. ) ;
#231 = ADVANCED_FACE ( 'NONE', ( #91 ), #54, .T. ) ;
#232 = ORIENTED_EDGE ( 'NONE', *, *, #160, .F. ) ;
#233 = EDGE_LOOP ( 'NONE', ( #232, #208, #210, #211, #212, #213 ) ) ;
#234 = ORIENTED_EDGE ( 'NONE', *, *, #159, .T. ) ;
#235 = ORIENTED_EDGE ( 'NONE', *, *, #144, .F. ) ;
#236 = EDGE_CURVE ( 'NONE', #148, #154, #86, .T. ) ;
#237 = UNCERTAINTY_MEASURE_WITH_UNIT (LENGTH_MEASURE( 1.000000000000000100E-005 ), #240, 'distance_accuracy_value', 'NONE');
#238 =( NAMED_UNIT ( * ) SI_UNIT ( $, .STERADIAN. ) SOLID_ANGLE_UNIT ( ) );
#239 =( NAMED_UNIT ( * ) PLANE_ANGLE_UNIT ( ) SI_UNIT ( $, .RADIAN. ) );
#240 =( LENGTH_UNIT ( ) NAMED_UNIT ( * ) SI_UNIT ( .MILLI., .METRE. ) );
#241 = MECHANICAL_DESIGN_GEOMETRIC_PRESENTATION_REPRESENTATION (  '', ( #243 ), #295 ) ;
#242 = PRESENTATION_LAYER_ASSIGNMENT (  '', '', ( #243 ) ) ;
#243 = STYLED_ITEM ( 'NONE', ( #244 ), #152 ) ;
#244 = PRESENTATION_STYLE_ASSIGNMENT (( #245 ) ) ;
#245 = SURFACE_STYLE_USAGE ( .BOTH. , #246 ) ;
#246 = SURFACE_SIDE_STYLE ('',( #247 ) ) ;
#247 = SURFACE_STYLE_FILL_AREA ( #248 ) ;
#248 = FILL_AREA_STYLE ('',( #249 ) ) ;
#249 = FILL_AREA_STYLE_COLOUR ( '', #250 ) ;
#250 = COLOUR_RGB ( '',0.9568627450980391500, 0.9490196078431372100, 0.9607843137254902200 ) ;
#251 = FACE_OUTER_BOUND ( 'NONE', #151, .T. ) ;
#252 = CARTESIAN_POINT ( 'NONE',  ( 0.0000000000000000000, 1.857727838748546200E-015, 7.400041186189393500 ) ) ;
#253 = CARTESIAN_POINT ( 'NONE',  ( -3.110500138708838200E-015, -25.39999999999999900, -6.346116582428510200 ) ) ;
#254 = DIRECTION ( 'NONE',  ( 1.000000000000000000, 0.0000000000000000000, 0.0000000000000000000 ) ) ;
#255 = DIRECTION ( 'NONE',  ( -0.0000000000000000000, -0.0000000000000000000, 1.000000000000000000 ) ) ;
#256 = CARTESIAN_POINT ( 'NONE',  ( 0.0000000000000000000, 0.0000000000000000000, -6.346116582428510200 ) ) ;
#257 = AXIS2_PLACEMENT_3D ( 'NONE', #256, #255, #254 ) ;
#258 = CIRCLE ( 'NONE', #257, 25.39999999999999900 ) ;
#259 = DIRECTION ( 'NONE',  ( 0.0000000000000000000, 0.0000000000000000000, -1.000000000000000000 ) ) ;
#260 = DIRECTION ( 'NONE',  ( 1.000000000000000000, 0.0000000000000000000, 0.0000000000000000000 ) ) ;
#261 = CARTESIAN_POINT ( 'NONE',  ( 0.0000000000000000000, 0.0000000000000000000, -22.93995881381060500 ) ) ;
#262 = AXIS2_PLACEMENT_3D ( 'NONE', #261, #260, #259 ) ;
#263 = CIRCLE ( 'NONE', #262, 30.34000000000000000 ) ;
#264 = DIRECTION ( 'NONE',  ( -1.224606353822377300E-016, -1.000000000000000000, 0.0000000000000000000 ) ) ;
#265 = DIRECTION ( 'NONE',  ( -1.000000000000000000, 1.224606353822377300E-016, 0.0000000000000000000 ) ) ;
#266 = CARTESIAN_POINT ( 'NONE',  ( 0.0000000000000000000, 0.0000000000000000000, -22.93995881381060500 ) ) ;
#267 = AXIS2_PLACEMENT_3D ( 'NONE', #266, #265, #264 ) ;
#268 = CIRCLE ( 'NONE', #267, 30.34000000000000000 ) ;
#269 = DIRECTION ( 'NONE',  ( -0.0000000000000000000, -0.0000000000000000000, 1.000000000000000000 ) ) ;
#270 = VECTOR ( 'NONE', #269, 1000.000000000000000 ) ;
#271 = CARTESIAN_POINT ( 'NONE',  ( -25.39999999999999900, 3.110500138708838200E-015, 11.45514494103044900 ) ) ;
#272 = LINE ( 'NONE', #271, #270 ) ;
#273 = CARTESIAN_POINT ( 'NONE',  ( 0.0000000000000000000, 0.0000000000000000000, -7.400041186189393500 ) ) ;
#274 = DIRECTION ( 'NONE',  ( 1.000000000000000000, 0.0000000000000000000, 0.0000000000000000000 ) ) ;
#275 = DIRECTION ( 'NONE',  ( -0.0000000000000000000, -0.0000000000000000000, 1.000000000000000000 ) ) ;
#276 = CARTESIAN_POINT ( 'NONE',  ( 0.0000000000000000000, 0.0000000000000000000, -6.346116582428510200 ) ) ;
#277 = AXIS2_PLACEMENT_3D ( 'NONE', #276, #275, #274 ) ;
#278 = CIRCLE ( 'NONE', #277, 25.39999999999999900 ) ;
#279 = DIRECTION ( 'NONE',  ( 1.000000000000000000, 0.0000000000000000000, 0.0000000000000000000 ) ) ;
#280 = DIRECTION ( 'NONE',  ( -0.0000000000000000000, -0.0000000000000000000, 1.000000000000000000 ) ) ;
#281 = CARTESIAN_POINT ( 'NONE',  ( 0.0000000000000000000, 0.0000000000000000000, -6.346116582428510200 ) ) ;
#282 = AXIS2_PLACEMENT_3D ( 'NONE', #281, #280, #279 ) ;
#283 = CIRCLE ( 'NONE', #282, 25.39999999999999900 ) ;
#284 = CARTESIAN_POINT ( 'NONE',  ( 0.0000000000000000000, 25.39999999999999900, -6.346116582428510200 ) ) ;
#285 = CARTESIAN_POINT ( 'NONE',  ( 25.39999999999999900, 0.0000000000000000000, -6.346116582428510200 ) ) ;
#286 = DIRECTION ( 'NONE',  ( -0.0000000000000000000, -0.0000000000000000000, 1.000000000000000000 ) ) ;
#287 = VECTOR ( 'NONE', #286, 1000.000000000000000 ) ;
#288 = CARTESIAN_POINT ( 'NONE',  ( 25.39999999999999900, 0.0000000000000000000, 11.45514494103044900 ) ) ;
#289 = LINE ( 'NONE', #288, #287 ) ;
#290 = DIRECTION ( 'NONE',  ( 0.0000000000000000000, 1.000000000000000000, 0.0000000000000000000 ) ) ;
#291 = DIRECTION ( 'NONE',  ( -1.000000000000000000, 0.0000000000000000000, 0.0000000000000000000 ) ) ;
#292 = CARTESIAN_POINT ( 'NONE',  ( 0.0000000000000000000, 0.0000000000000000000, -22.93995881381060500 ) ) ;
#293 = AXIS2_PLACEMENT_3D ( 'NONE', #292, #291, #290 ) ;
#294 = SPHERICAL_SURFACE ( 'NONE', #293, 30.34000000000000000 ) ;
#295 =( GEOMETRIC_REPRESENTATION_CONTEXT ( 3 ) GLOBAL_UNCERTAINTY_ASSIGNED_CONTEXT ( ( #237 ) ) GLOBAL_UNIT_ASSIGNED_CONTEXT ( ( #240, #239, #238 ) ) REPRESENTATION_CONTEXT ( 'NONE', 'WORKASPACE' ) );
#296 = FILL_AREA_STYLE_COLOUR ( '', #200 ) ;
#297 = DIRECTION ( 'NONE',  ( 0.0000000000000000000, 1.000000000000000000, 0.0000000000000000000 ) ) ;
#298 = DIRECTION ( 'NONE',  ( -1.000000000000000000, 0.0000000000000000000, 0.0000000000000000000 ) ) ;
#299 = CARTESIAN_POINT ( 'NONE',  ( 0.0000000000000000000, 0.0000000000000000000, -22.93995881381060500 ) ) ;
#300 = AXIS2_PLACEMENT_3D ( 'NONE', #299, #298, #297 ) ;
#301 = CIRCLE ( 'NONE', #205, 25.39999999999999900 ) ;
#302 = SPHERICAL_SURFACE ( 'NONE', #300, 30.34000000000000000 ) ;
#303 =( GEOMETRIC_REPRESENTATION_CONTEXT ( 3 ) GLOBAL_UNCERTAINTY_ASSIGNED_CONTEXT ( ( #304 ) ) GLOBAL_UNIT_ASSIGNED_CONTEXT ( ( #307, #306, #305 ) ) REPRESENTATION_CONTEXT ( 'NONE', 'WORKASPACE' ) );
#304 = UNCERTAINTY_MEASURE_WITH_UNIT (LENGTH_MEASURE( 1.000000000000000100E-005 ), #307, 'distance_accuracy_value', 'NONE');
#305 =( NAMED_UNIT ( * ) SI_UNIT ( $, .STERADIAN. ) SOLID_ANGLE_UNIT ( ) );
#306 =( NAMED_UNIT ( * ) PLANE_ANGLE_UNIT ( ) SI_UNIT ( $, .RADIAN. ) );
#307 =( LENGTH_UNIT ( ) NAMED_UNIT ( * ) SI_UNIT ( .MILLI., .METRE. ) );
#308 = MECHANICAL_DESIGN_GEOMETRIC_PRESENTATION_REPRESENTATION (  '', ( #310 ), #303 ) ;
#309 = PRESENTATION_LAYER_ASSIGNMENT (  '', '', ( #310 ) ) ;
#310 = STYLED_ITEM ( 'NONE', ( #311 ), #162 ) ;
#311 = PRESENTATION_STYLE_ASSIGNMENT (( #312 ) ) ;
#312 = SURFACE_STYLE_USAGE ( .BOTH. , #313 ) ;
#313 = SURFACE_SIDE_STYLE ('',( #314 ) ) ;
#314 = SURFACE_STYLE_FILL_AREA ( #315 ) ;
#315 = FILL_AREA_STYLE ('',( #322 ) ) ;
#316 = COLOUR_RGB ( '',0.9568627450980391500, 0.9490196078431372100, 0.9607843137254902200 ) ;
#317 = FACE_OUTER_BOUND ( 'NONE', #172, .T. ) ;
#318 = DIRECTION ( 'NONE',  ( 1.000000000000000000, 0.0000000000000000000, 0.0000000000000000000 ) ) ;
#319 = DIRECTION ( 'NONE',  ( -0.0000000000000000000, -0.0000000000000000000, 1.000000000000000000 ) ) ;
#320 = AXIS2_PLACEMENT_3D ( 'NONE', #273, #319, #318 ) ;
#321 = CIRCLE ( 'NONE', #320, 25.39999999999999900 ) ;
#322 = FILL_AREA_STYLE_COLOUR ( '', #316 ) ;
ENDSEC;
END-ISO-10303-21;
