ISO-10303-21;
HEADER;
FILE_DESCRIPTION (( 'STEP AP203' ),
    '1' );
FILE_NAME ('Web Model Lightsmyth Gratings_16873.step',
    '2021-03-11T20:27:25',
    ( '' ),
    ( '' ),
    'SwSTEP 2.0',
    'SolidWorks 2018',
    '' );
FILE_SCHEMA (( 'CONFIG_CONTROL_DESIGN' ));
ENDSEC;

DATA;
#1 = CALENDAR_DATE ( 2021, 11, 3 ) ;
#2 = CARTESIAN_POINT ( 'NONE',  ( 0.0000000000000000000, 0.0000000000000000000, 0.6750000000000000444 ) ) ;
#3 = LINE ( 'NONE', #162, #197 ) ;
#4 = DIRECTION ( 'NONE',  ( -0.0000000000000000000, -0.0000000000000000000, -1.000000000000000000 ) ) ;
#5 =( NAMED_UNIT ( * ) SI_UNIT ( $, .STERADIAN. ) SOLID_ANGLE_UNIT ( ) );
#6 = APPLICATION_PROTOCOL_DEFINITION ( 'international standard', 'config_control_design', 1994, #94 ) ;
#7 = CC_DESIGN_PERSON_AND_ORGANIZATION_ASSIGNMENT ( #104, #158, ( #48 ) ) ;
#8 = FACE_OUTER_BOUND ( 'NONE', #218, .T. ) ;
#9 = ORIENTED_EDGE ( 'NONE', *, *, #102, .T. ) ;
#10 = PERSON_AND_ORGANIZATION ( #181, #72 ) ;
#11 = FACE_OUTER_BOUND ( 'NONE', #147, .T. ) ;
#12 = APPROVAL_PERSON_ORGANIZATION ( #10, #15, #229 ) ;
#13 = CARTESIAN_POINT ( 'NONE',  ( -13.50000000000000178, 5.000000000000000888, 0.0000000000000000000 ) ) ;
#14 = MANIFOLD_SOLID_BREP ( 'Boss-Extrude1', #171 ) ;
#15 = APPROVAL ( #176, 'UNSPECIFIED' ) ;
#16 = DIRECTION ( 'NONE',  ( 0.0000000000000000000, 1.000000000000000000, 0.0000000000000000000 ) ) ;
#17 = SHAPE_DEFINITION_REPRESENTATION ( #201, #228 ) ;
#18 =( LENGTH_UNIT ( ) NAMED_UNIT ( * ) SI_UNIT ( .MILLI., .METRE. ) );
#19 = ORIENTED_EDGE ( 'NONE', *, *, #199, .T. ) ;
#20 =( NAMED_UNIT ( * ) PLANE_ANGLE_UNIT ( ) SI_UNIT ( $, .RADIAN. ) );
#21 = EDGE_CURVE ( 'NONE', #187, #117, #233, .T. ) ;
#22 = APPLICATION_PROTOCOL_DEFINITION ( 'international standard', 'config_control_design', 1994, #95 ) ;
#23 = DATE_AND_TIME ( #1, #88 ) ;
#24 = ORIENTED_EDGE ( 'NONE', *, *, #167, .F. ) ;
#25 = DATE_AND_TIME ( #82, #150 ) ;
#26 = CC_DESIGN_DATE_AND_TIME_ASSIGNMENT ( #25, #42, ( #146 ) ) ;
#27 = CARTESIAN_POINT ( 'NONE',  ( -13.50000000000000178, 5.000000000000000888, 0.6750000000000000444 ) ) ;
#28 = CARTESIAN_POINT ( 'NONE',  ( -13.50000000000000178, -4.999999999999999112, 0.6750000000000000444 ) ) ;
#29 = VECTOR ( 'NONE', #4, 1000.000000000000000 ) ;
#30 = AXIS2_PLACEMENT_3D ( 'NONE', #145, #222, #220 ) ;
#31 = DIRECTION ( 'NONE',  ( 1.000000000000000000, 0.0000000000000000000, 0.0000000000000000000 ) ) ;
#32 = EDGE_CURVE ( 'NONE', #202, #118, #44, .T. ) ;
#33 = DIRECTION ( 'NONE',  ( 0.0000000000000000000, 1.000000000000000000, 0.0000000000000000000 ) ) ;
#34 = LOCAL_TIME ( 15, 27, 24.00000000000000000, #52 ) ;
#35 = APPROVAL ( #193, 'UNSPECIFIED' ) ;
#36 = CARTESIAN_POINT ( 'NONE',  ( -13.50000000000000178, -4.999999999999999112, 0.6750000000000000444 ) ) ;
#37 = CARTESIAN_POINT ( 'NONE',  ( 0.0000000000000000000, 0.0000000000000000000, 0.0000000000000000000 ) ) ;
#38 = CARTESIAN_POINT ( 'NONE',  ( 13.50000000000000000, -4.999999999999999112, 0.0000000000000000000 ) ) ;
#39 = DIRECTION ( 'NONE',  ( 0.0000000000000000000, -0.0000000000000000000, -1.000000000000000000 ) ) ;
#40 = DATE_TIME_ROLE ( 'creation_date' ) ;
#41 = CC_DESIGN_APPROVAL ( #15, ( #48 ) ) ;
#42 = DATE_TIME_ROLE ( 'classification_date' ) ;
#43 = PRODUCT ( 'Web Model Lightsmyth Gratings_16873', 'Web Model Lightsmyth Gratings_16873', '', ( #136 ) ) ;
#44 = LINE ( 'NONE', #28, #49 ) ;
#45 = ORIENTED_EDGE ( 'NONE', *, *, #97, .F. ) ;
#46 = EDGE_CURVE ( 'NONE', #217, #187, #3, .T. ) ;
#47 = LINE ( 'NONE', #207, #29 ) ;
#48 = PRODUCT_DEFINITION_FORMATION_WITH_SPECIFIED_SOURCE ( 'ANY', '', #43, .NOT_KNOWN. ) ;
#49 = VECTOR ( 'NONE', #213, 1000.000000000000000 ) ;
#50 = DIRECTION ( 'NONE',  ( -1.000000000000000000, -0.0000000000000000000, -0.0000000000000000000 ) ) ;
#51 = CARTESIAN_POINT ( 'NONE',  ( 13.50000000000000000, -4.999999999999999112, 0.6750000000000000444 ) ) ;
#52 = COORDINATED_UNIVERSAL_TIME_OFFSET ( 5, 0, .BEHIND. ) ;
#53 = EDGE_CURVE ( 'NONE', #159, #125, #89, .T. ) ;
#54 = VECTOR ( 'NONE', #192, 1000.000000000000000 ) ;
#55 = ORIENTED_EDGE ( 'NONE', *, *, #32, .T. ) ;
#56 = PERSON_AND_ORGANIZATION ( #181, #72 ) ;
#57 = CARTESIAN_POINT ( 'NONE',  ( -13.50000000000000178, -4.999999999999999112, 0.6750000000000000444 ) ) ;
#58 = LINE ( 'NONE', #57, #54 ) ;
#59 = DIRECTION ( 'NONE',  ( 0.0000000000000000000, 0.0000000000000000000, -1.000000000000000000 ) ) ;
#60 = ADVANCED_FACE ( 'NONE', ( #138 ), #124, .F. ) ;
#61 = EDGE_LOOP ( 'NONE', ( #103, #45, #226, #19 ) ) ;
#62 = ADVANCED_FACE ( 'NONE', ( #231 ), #188, .F. ) ;
#63 = APPROVAL_DATE_TIME ( #106, #35 ) ;
#64 = EDGE_CURVE ( 'NONE', #118, #217, #200, .T. ) ;
#65 = COORDINATED_UNIVERSAL_TIME_OFFSET ( 5, 0, .BEHIND. ) ;
#66 = EDGE_LOOP ( 'NONE', ( #180, #9, #184, #55 ) ) ;
#67 = PERSON_AND_ORGANIZATION ( #181, #72 ) ;
#68 = AXIS2_PLACEMENT_3D ( 'NONE', #149, #92, #39 ) ;
#69 = DATE_AND_TIME ( #215, #34 ) ;
#70 = APPROVAL_DATE_TIME ( #196, #127 ) ;
#71 = ORIENTED_EDGE ( 'NONE', *, *, #53, .T. ) ;
#72 = ORGANIZATION ( 'UNSPECIFIED', 'UNSPECIFIED', '' ) ;
#73 = DIRECTION ( 'NONE',  ( 0.0000000000000000000, 0.0000000000000000000, -1.000000000000000000 ) ) ;
#74 = CARTESIAN_POINT ( 'NONE',  ( -13.50000000000000178, -4.999999999999999112, 0.6750000000000000444 ) ) ;
#75 = ORIENTED_EDGE ( 'NONE', *, *, #167, .T. ) ;
#76 = DIRECTION ( 'NONE',  ( -1.000000000000000000, 0.0000000000000000000, -0.0000000000000000000 ) ) ;
#77 = CC_DESIGN_PERSON_AND_ORGANIZATION_ASSIGNMENT ( #137, #155, ( #175 ) ) ;
#78 = VECTOR ( 'NONE', #16, 1000.000000000000000 ) ;
#79 = PLANE ( 'NONE',  #68 ) ;
#80 = ORIENTED_EDGE ( 'NONE', *, *, #97, .T. ) ;
#81 = CARTESIAN_POINT ( 'NONE',  ( 0.0000000000000000000, 0.0000000000000000000, 0.0000000000000000000 ) ) ;
#82 = CALENDAR_DATE ( 2021, 11, 3 ) ;
#83 = DIRECTION ( 'NONE',  ( 0.0000000000000000000, 0.0000000000000000000, 1.000000000000000000 ) ) ;
#84 = PERSON_AND_ORGANIZATION_ROLE ( 'creator' ) ;
#85 = PERSON_AND_ORGANIZATION_ROLE ( 'design_owner' ) ;
#86 = AXIS2_PLACEMENT_3D ( 'NONE', #37, #83, #209 ) ;
#87 = VECTOR ( 'NONE', #191, 1000.000000000000000 ) ;
#88 = LOCAL_TIME ( 15, 27, 24.00000000000000000, #139 ) ;
#89 = LINE ( 'NONE', #205, #185 ) ;
#90 = CC_DESIGN_PERSON_AND_ORGANIZATION_ASSIGNMENT ( #67, #85, ( #43 ) ) ;
#91 = CARTESIAN_POINT ( 'NONE',  ( 13.50000000000000000, 5.000000000000000888, 0.0000000000000000000 ) ) ;
#92 = DIRECTION ( 'NONE',  ( 0.0000000000000000000, -1.000000000000000000, 0.0000000000000000000 ) ) ;
#93 = DIRECTION ( 'NONE',  ( 0.0000000000000000000, 0.0000000000000000000, -1.000000000000000000 ) ) ;
#94 = APPLICATION_CONTEXT ( 'configuration controlled 3d designs of mechanical parts and assemblies' ) ;
#95 = APPLICATION_CONTEXT ( 'configuration controlled 3d designs of mechanical parts and assemblies' ) ;
#96 = VECTOR ( 'NONE', #236, 1000.000000000000000 ) ;
#97 = EDGE_CURVE ( 'NONE', #202, #159, #156, .T. ) ;
#98 = ORIENTED_EDGE ( 'NONE', *, *, #199, .F. ) ;
#99 = ORIENTED_EDGE ( 'NONE', *, *, #120, .F. ) ;
#100 = FACE_OUTER_BOUND ( 'NONE', #195, .T. ) ;
#101 = VECTOR ( 'NONE', #105, 1000.000000000000000 ) ;
#102 = EDGE_CURVE ( 'NONE', #217, #119, #178, .T. ) ;
#103 = ORIENTED_EDGE ( 'NONE', *, *, #120, .T. ) ;
#104 = PERSON_AND_ORGANIZATION ( #181, #72 ) ;
#105 = DIRECTION ( 'NONE',  ( -1.000000000000000000, -0.0000000000000000000, -0.0000000000000000000 ) ) ;
#106 = DATE_AND_TIME ( #189, #114 ) ;
#107 = ORIENTED_EDGE ( 'NONE', *, *, #102, .F. ) ;
#108 = DIRECTION ( 'NONE',  ( 0.0000000000000000000, 1.000000000000000000, 0.0000000000000000000 ) ) ;
#109 = AXIS2_PLACEMENT_3D ( 'NONE', #225, #108, #110 ) ;
#110 = DIRECTION ( 'NONE',  ( 0.0000000000000000000, -0.0000000000000000000, 1.000000000000000000 ) ) ;
#111 = DIRECTION ( 'NONE',  ( -0.0000000000000000000, -0.0000000000000000000, -1.000000000000000000 ) ) ;
#112 = APPROVAL_ROLE ( '' ) ;
#113 = CC_DESIGN_DATE_AND_TIME_ASSIGNMENT ( #23, #40, ( #175 ) ) ;
#114 = LOCAL_TIME ( 15, 27, 24.00000000000000000, #208 ) ;
#115 = VECTOR ( 'NONE', #111, 1000.000000000000000 ) ;
#116 = CALENDAR_DATE ( 2021, 11, 3 ) ;
#117 = VERTEX_POINT ( 'NONE', #170 ) ;
#118 = VERTEX_POINT ( 'NONE', #126 ) ;
#119 = VERTEX_POINT ( 'NONE', #133 ) ;
#120 = EDGE_CURVE ( 'NONE', #117, #159, #230, .T. ) ;
#121 = LINE ( 'NONE', #38, #78 ) ;
#122 = EDGE_CURVE ( 'NONE', #119, #202, #58, .T. ) ;
#123 = UNCERTAINTY_MEASURE_WITH_UNIT (LENGTH_MEASURE( 1.000000000000000082E-05 ), #18, 'distance_accuracy_value', 'NONE');
#124 = PLANE ( 'NONE',  #30 ) ;
#125 = VERTEX_POINT ( 'NONE', #165 ) ;
#126 = CARTESIAN_POINT ( 'NONE',  ( 13.50000000000000000, -4.999999999999999112, 0.6750000000000000444 ) ) ;
#127 = APPROVAL ( #177, 'UNSPECIFIED' ) ;
#128 = DIRECTION ( 'NONE',  ( 1.000000000000000000, 0.0000000000000000000, 0.0000000000000000000 ) ) ;
#129 = ADVANCED_FACE ( 'NONE', ( #11 ), #227, .F. ) ;
#130 = CARTESIAN_POINT ( 'NONE',  ( -13.50000000000000178, -4.999999999999999112, 0.6750000000000000444 ) ) ;
#131 = ORIENTED_EDGE ( 'NONE', *, *, #64, .F. ) ;
#132 = DESIGN_CONTEXT ( 'detailed design', #95, 'design' ) ;
#133 = CARTESIAN_POINT ( 'NONE',  ( -13.50000000000000178, 5.000000000000000888, 0.6750000000000000444 ) ) ;
#134 = ADVANCED_FACE ( 'NONE', ( #8 ), #79, .F. ) ;
#135 = LOCAL_TIME ( 15, 27, 24.00000000000000000, #65 ) ;
#136 = MECHANICAL_CONTEXT ( 'NONE', #94, 'mechanical' ) ;
#137 = PERSON_AND_ORGANIZATION ( #181, #72 ) ;
#138 = FACE_OUTER_BOUND ( 'NONE', #234, .T. ) ;
#139 = COORDINATED_UNIVERSAL_TIME_OFFSET ( 5, 0, .BEHIND. ) ;
#140 = CC_DESIGN_APPROVAL ( #127, ( #146 ) ) ;
#141 = ORIENTED_EDGE ( 'NONE', *, *, #21, .F. ) ;
#142 = ORIENTED_EDGE ( 'NONE', *, *, #53, .F. ) ;
#143 = VECTOR ( 'NONE', #50, 1000.000000000000000 ) ;
#144 = PERSON_AND_ORGANIZATION ( #181, #72 ) ;
#145 = CARTESIAN_POINT ( 'NONE',  ( 13.50000000000000000, -4.999999999999999112, 0.6750000000000000444 ) ) ;
#146 = SECURITY_CLASSIFICATION ( '', '', #194 ) ;
#147 = EDGE_LOOP ( 'NONE', ( #71, #24, #237, #80 ) ) ;
#148 = CC_DESIGN_PERSON_AND_ORGANIZATION_ASSIGNMENT ( #56, #211, ( #146 ) ) ;
#149 = CARTESIAN_POINT ( 'NONE',  ( -13.50000000000000178, 5.000000000000000888, 0.6750000000000000444 ) ) ;
#150 = LOCAL_TIME ( 15, 27, 24.00000000000000000, #204 ) ;
#151 = FACE_OUTER_BOUND ( 'NONE', #61, .T. ) ;
#152 = CARTESIAN_POINT ( 'NONE',  ( 13.50000000000000000, 5.000000000000000888, 0.6750000000000000444 ) ) ;
#153 = PLANE ( 'NONE',  #214 ) ;
#154 = ORIENTED_EDGE ( 'NONE', *, *, #179, .T. ) ;
#155 = PERSON_AND_ORGANIZATION_ROLE ( 'creator' ) ;
#156 = LINE ( 'NONE', #74, #96 ) ;
#157 = ADVANCED_FACE ( 'NONE', ( #151 ), #224, .F. ) ;
#158 = PERSON_AND_ORGANIZATION_ROLE ( 'design_supplier' ) ;
#159 = VERTEX_POINT ( 'NONE', #174 ) ;
#160 = PERSON_AND_ORGANIZATION ( #181, #72 ) ;
#161 = VECTOR ( 'NONE', #33, 1000.000000000000000 ) ;
#162 = CARTESIAN_POINT ( 'NONE',  ( 13.50000000000000000, 5.000000000000000888, 0.6750000000000000444 ) ) ;
#163 = APPROVAL_DATE_TIME ( #69, #15 ) ;
#164 = AXIS2_PLACEMENT_3D ( 'NONE', #2, #73, #219 ) ;
#165 = CARTESIAN_POINT ( 'NONE',  ( 13.50000000000000000, -4.999999999999999112, 0.0000000000000000000 ) ) ;
#166 = CARTESIAN_POINT ( 'NONE',  ( -13.50000000000000178, -4.999999999999999112, 0.0000000000000000000 ) ) ;
#167 = EDGE_CURVE ( 'NONE', #118, #125, #47, .T. ) ;
#168 = LINE ( 'NONE', #172, #115 ) ;
#169 = ORIENTED_EDGE ( 'NONE', *, *, #21, .T. ) ;
#170 = CARTESIAN_POINT ( 'NONE',  ( -13.50000000000000178, 5.000000000000000888, 0.0000000000000000000 ) ) ;
#171 = CLOSED_SHELL ( 'NONE', ( #60, #134, #157, #129, #62, #173 ) ) ;
#172 = CARTESIAN_POINT ( 'NONE',  ( -13.50000000000000178, 5.000000000000000888, 0.6750000000000000444 ) ) ;
#173 = ADVANCED_FACE ( 'NONE', ( #100 ), #153, .T. ) ;
#174 = CARTESIAN_POINT ( 'NONE',  ( -13.50000000000000178, -4.999999999999999112, 0.0000000000000000000 ) ) ;
#175 = PRODUCT_DEFINITION ( 'UNKNOWN', '', #48, #132 ) ;
#176 = APPROVAL_STATUS ( 'not_yet_approved' ) ;
#177 = APPROVAL_STATUS ( 'not_yet_approved' ) ;
#178 = LINE ( 'NONE', #27, #101 ) ;
#179 = EDGE_CURVE ( 'NONE', #125, #187, #121, .T. ) ;
#180 = ORIENTED_EDGE ( 'NONE', *, *, #64, .T. ) ;
#181 = PERSON ( 'UNSPECIFIED', 'UNSPECIFIED', 'UNSPECIFIED', ('UNSPECIFIED'), ('UNSPECIFIED'), ('UNSPECIFIED') ) ;
#182 = CC_DESIGN_SECURITY_CLASSIFICATION ( #146, ( #48 ) ) ;
#183 = APPROVAL_PERSON_ORGANIZATION ( #223, #35, #112 ) ;
#184 = ORIENTED_EDGE ( 'NONE', *, *, #122, .T. ) ;
#185 = VECTOR ( 'NONE', #31, 1000.000000000000000 ) ;
#186 = CC_DESIGN_PERSON_AND_ORGANIZATION_ASSIGNMENT ( #160, #84, ( #48 ) ) ;
#187 = VERTEX_POINT ( 'NONE', #91 ) ;
#188 = PLANE ( 'NONE',  #164 ) ;
#189 = CALENDAR_DATE ( 2021, 11, 3 ) ;
#190 = AXIS2_PLACEMENT_3D ( 'NONE', #130, #128, #59 ) ;
#191 = DIRECTION ( 'NONE',  ( -0.0000000000000000000, -1.000000000000000000, -0.0000000000000000000 ) ) ;
#192 = DIRECTION ( 'NONE',  ( -0.0000000000000000000, -1.000000000000000000, -0.0000000000000000000 ) ) ;
#193 = APPROVAL_STATUS ( 'not_yet_approved' ) ;
#194 = SECURITY_CLASSIFICATION_LEVEL ( 'unclassified' ) ;
#195 = EDGE_LOOP ( 'NONE', ( #198, #142, #99, #141 ) ) ;
#196 = DATE_AND_TIME ( #116, #135 ) ;
#197 = VECTOR ( 'NONE', #232, 1000.000000000000000 ) ;
#198 = ORIENTED_EDGE ( 'NONE', *, *, #179, .F. ) ;
#199 = EDGE_CURVE ( 'NONE', #119, #117, #168, .T. ) ;
#200 = LINE ( 'NONE', #51, #161 ) ;
#201 = PRODUCT_DEFINITION_SHAPE ( 'NONE', 'NONE',  #175 ) ;
#202 = VERTEX_POINT ( 'NONE', #36 ) ;
#203 = PRODUCT_RELATED_PRODUCT_CATEGORY ( 'detail', '', ( #43 ) ) ;
#204 = COORDINATED_UNIVERSAL_TIME_OFFSET ( 5, 0, .BEHIND. ) ;
#205 = CARTESIAN_POINT ( 'NONE',  ( -13.50000000000000178, -4.999999999999999112, 0.0000000000000000000 ) ) ;
#206 = ORIENTED_EDGE ( 'NONE', *, *, #46, .F. ) ;
#207 = CARTESIAN_POINT ( 'NONE',  ( 13.50000000000000000, -4.999999999999999112, 0.6750000000000000444 ) ) ;
#208 = COORDINATED_UNIVERSAL_TIME_OFFSET ( 5, 0, .BEHIND. ) ;
#209 = DIRECTION ( 'NONE',  ( 1.000000000000000000, 0.0000000000000000000, 0.0000000000000000000 ) ) ;
#210 = APPROVAL_ROLE ( '' ) ;
#211 = PERSON_AND_ORGANIZATION_ROLE ( 'classification_officer' ) ;
#212 = CC_DESIGN_APPROVAL ( #35, ( #175 ) ) ;
#213 = DIRECTION ( 'NONE',  ( 1.000000000000000000, 0.0000000000000000000, 0.0000000000000000000 ) ) ;
#214 = AXIS2_PLACEMENT_3D ( 'NONE', #81, #93, #76 ) ;
#215 = CALENDAR_DATE ( 2021, 11, 3 ) ;
#216 = ORIENTED_EDGE ( 'NONE', *, *, #46, .T. ) ;
#217 = VERTEX_POINT ( 'NONE', #152 ) ;
#218 = EDGE_LOOP ( 'NONE', ( #169, #98, #107, #216 ) ) ;
#219 = DIRECTION ( 'NONE',  ( -1.000000000000000000, 0.0000000000000000000, -0.0000000000000000000 ) ) ;
#220 = DIRECTION ( 'NONE',  ( 0.0000000000000000000, 0.0000000000000000000, 1.000000000000000000 ) ) ;
#221 =( GEOMETRIC_REPRESENTATION_CONTEXT ( 3 ) GLOBAL_UNCERTAINTY_ASSIGNED_CONTEXT ( ( #123 ) ) GLOBAL_UNIT_ASSIGNED_CONTEXT ( ( #18, #20, #5 ) ) REPRESENTATION_CONTEXT ( 'NONE', 'WORKASPACE' ) );
#222 = DIRECTION ( 'NONE',  ( -1.000000000000000000, 0.0000000000000000000, 0.0000000000000000000 ) ) ;
#223 = PERSON_AND_ORGANIZATION ( #181, #72 ) ;
#224 = PLANE ( 'NONE',  #190 ) ;
#225 = CARTESIAN_POINT ( 'NONE',  ( -13.50000000000000178, -4.999999999999999112, 0.6750000000000000444 ) ) ;
#226 = ORIENTED_EDGE ( 'NONE', *, *, #122, .F. ) ;
#227 = PLANE ( 'NONE',  #109 ) ;
#228 = ADVANCED_BREP_SHAPE_REPRESENTATION ( 'Web Model Lightsmyth Gratings_16873', ( #14, #86 ), #221 ) ;
#229 = APPROVAL_ROLE ( '' ) ;
#230 = LINE ( 'NONE', #166, #87 ) ;
#231 = FACE_OUTER_BOUND ( 'NONE', #66, .T. ) ;
#232 = DIRECTION ( 'NONE',  ( -0.0000000000000000000, -0.0000000000000000000, -1.000000000000000000 ) ) ;
#233 = LINE ( 'NONE', #13, #143 ) ;
#234 = EDGE_LOOP ( 'NONE', ( #154, #206, #131, #75 ) ) ;
#235 = APPROVAL_PERSON_ORGANIZATION ( #144, #127, #210 ) ;
#236 = DIRECTION ( 'NONE',  ( -0.0000000000000000000, -0.0000000000000000000, -1.000000000000000000 ) ) ;
#237 = ORIENTED_EDGE ( 'NONE', *, *, #32, .F. ) ;
ENDSEC;
END-ISO-10303-21;
