ISO-10303-21;
HEADER;
FILE_DESCRIPTION (( 'STEP AP203' ),
    '1' );
FILE_NAME ('Web Model 47026.STEP',
    '2017-01-31T15:20:14',
    ( '' ),
    ( '' ),
    'SwSTEP 2.0',
    'SolidWorks 2016',
    '' );
FILE_SCHEMA (( 'CONFIG_CONTROL_DESIGN' ));
ENDSEC;

DATA;
#1 = LINE ( 'NONE', #188, #44 ) ;
#2 = VERTEX_POINT ( 'NONE', #181 ) ;
#3 = VECTOR ( 'NONE', #64, 1000.000000000000000 ) ;
#4 = EDGE_LOOP ( 'NONE', ( #208, #12, #152, #203 ) ) ;
#5 = COORDINATED_UNIVERSAL_TIME_OFFSET ( 5, 0, .BEHIND. ) ;
#6 = AXIS2_PLACEMENT_3D ( 'NONE', #165, #104, #133 ) ;
#7 = ORIENTED_EDGE ( 'NONE', *, *, #80, .F. ) ;
#8 = PERSON_AND_ORGANIZATION ( #85, #204 ) ;
#9 = CARTESIAN_POINT ( 'NONE',  ( 0.0000000000000000000, 0.0000000000000000000, 3.000000000000000000 ) ) ;
#10 = DIRECTION ( 'NONE',  ( 0.0000000000000000000, 0.0000000000000000000, 1.000000000000000000 ) ) ;
#11 =( NAMED_UNIT ( * ) PLANE_ANGLE_UNIT ( ) SI_UNIT ( $, .RADIAN. ) );
#12 = ORIENTED_EDGE ( 'NONE', *, *, #84, .T. ) ;
#13 = CARTESIAN_POINT ( 'NONE',  ( 0.0000000000000000000, 25.00000000000000000, 3.000000000000000000 ) ) ;
#14 = SECURITY_CLASSIFICATION_LEVEL ( 'unclassified' ) ;
#15 = APPROVAL_PERSON_ORGANIZATION ( #139, #173, #52 ) ;
#16 = ORIENTED_EDGE ( 'NONE', *, *, #196, .F. ) ;
#17 = DIRECTION ( 'NONE',  ( -1.000000000000000000, 0.0000000000000000000, -0.0000000000000000000 ) ) ;
#18 = ADVANCED_FACE ( 'NONE', ( #111 ), #162, .F. ) ;
#19 = COORDINATED_UNIVERSAL_TIME_OFFSET ( 5, 0, .BEHIND. ) ;
#20 = CC_DESIGN_PERSON_AND_ORGANIZATION_ASSIGNMENT ( #146, #231, ( #233 ) ) ;
#21 = VECTOR ( 'NONE', #123, 1000.000000000000000 ) ;
#22 = PRODUCT ( 'Web Model 47026', 'Web Model 47026', '', ( #118 ) ) ;
#23 = VERTEX_POINT ( 'NONE', #76 ) ;
#24 = CALENDAR_DATE ( 2017, 31, 1 ) ;
#25 = FACE_OUTER_BOUND ( 'NONE', #4, .T. ) ;
#26 = CALENDAR_DATE ( 2017, 31, 1 ) ;
#27 = PLANE ( 'NONE',  #130 ) ;
#28 = APPROVAL_ROLE ( '' ) ;
#29 = ORIENTED_EDGE ( 'NONE', *, *, #54, .T. ) ;
#30 = MANIFOLD_SOLID_BREP ( 'Extrude1', #142 ) ;
#31 = APPROVAL_DATE_TIME ( #86, #153 ) ;
#32 = CARTESIAN_POINT ( 'NONE',  ( 0.0000000000000000000, 25.00000000000000000, 3.000000000000000000 ) ) ;
#33 = CARTESIAN_POINT ( 'NONE',  ( 38.00000000000000000, 25.00000000000000000, 3.000000000000000000 ) ) ;
#34 = COORDINATED_UNIVERSAL_TIME_OFFSET ( 5, 0, .BEHIND. ) ;
#35 = FACE_OUTER_BOUND ( 'NONE', #45, .T. ) ;
#36 = ADVANCED_FACE ( 'NONE', ( #25 ), #95, .F. ) ;
#37 = ORIENTED_EDGE ( 'NONE', *, *, #54, .F. ) ;
#38 = FACE_OUTER_BOUND ( 'NONE', #185, .T. ) ;
#39 = CARTESIAN_POINT ( 'NONE',  ( 0.0000000000000000000, 0.0000000000000000000, 3.000000000000000000 ) ) ;
#40 = AXIS2_PLACEMENT_3D ( 'NONE', #179, #109, #235 ) ;
#41 = VERTEX_POINT ( 'NONE', #33 ) ;
#42 = VECTOR ( 'NONE', #187, 1000.000000000000000 ) ;
#43 = ORIENTED_EDGE ( 'NONE', *, *, #80, .T. ) ;
#44 = VECTOR ( 'NONE', #48, 1000.000000000000000 ) ;
#45 = EDGE_LOOP ( 'NONE', ( #78, #224, #192, #72 ) ) ;
#46 = DATE_TIME_ROLE ( 'creation_date' ) ;
#47 = APPROVAL_STATUS ( 'not_yet_approved' ) ;
#48 = DIRECTION ( 'NONE',  ( -0.0000000000000000000, -0.0000000000000000000, -1.000000000000000000 ) ) ;
#49 = APPLICATION_PROTOCOL_DEFINITION ( 'international standard', 'config_control_design', 1994, #230 ) ;
#50 = VERTEX_POINT ( 'NONE', #180 ) ;
#51 = DATE_AND_TIME ( #24, #198 ) ;
#52 = APPROVAL_ROLE ( '' ) ;
#53 = EDGE_LOOP ( 'NONE', ( #149, #75, #7, #61 ) ) ;
#54 = EDGE_CURVE ( 'NONE', #41, #236, #145, .T. ) ;
#55 = DIRECTION ( 'NONE',  ( -0.0000000000000000000, -0.0000000000000000000, -1.000000000000000000 ) ) ;
#56 = VECTOR ( 'NONE', #172, 1000.000000000000000 ) ;
#57 = PERSON_AND_ORGANIZATION ( #85, #204 ) ;
#58 = DIRECTION ( 'NONE',  ( 0.0000000000000000000, 1.000000000000000000, 0.0000000000000000000 ) ) ;
#59 = DIRECTION ( 'NONE',  ( -0.0000000000000000000, -0.0000000000000000000, -1.000000000000000000 ) ) ;
#60 = EDGE_CURVE ( 'NONE', #50, #41, #157, .T. ) ;
#61 = ORIENTED_EDGE ( 'NONE', *, *, #131, .F. ) ;
#62 = LINE ( 'NONE', #159, #42 ) ;
#63 = CC_DESIGN_APPROVAL ( #177, ( #233 ) ) ;
#64 = DIRECTION ( 'NONE',  ( -0.0000000000000000000, -1.000000000000000000, -0.0000000000000000000 ) ) ;
#65 = AXIS2_PLACEMENT_3D ( 'NONE', #193, #211, #156 ) ;
#66 = APPROVAL_STATUS ( 'not_yet_approved' ) ;
#67 = PRODUCT_RELATED_PRODUCT_CATEGORY ( 'detail', '', ( #22 ) ) ;
#68 = CALENDAR_DATE ( 2017, 31, 1 ) ;
#69 = CARTESIAN_POINT ( 'NONE',  ( 0.0000000000000000000, 0.0000000000000000000, 3.000000000000000000 ) ) ;
#70 = LINE ( 'NONE', #164, #110 ) ;
#71 = PLANE ( 'NONE',  #218 ) ;
#72 = ORIENTED_EDGE ( 'NONE', *, *, #87, .T. ) ;
#73 = EDGE_CURVE ( 'NONE', #236, #170, #137, .T. ) ;
#74 = PERSON_AND_ORGANIZATION_ROLE ( 'classification_officer' ) ;
#75 = ORIENTED_EDGE ( 'NONE', *, *, #73, .F. ) ;
#76 = CARTESIAN_POINT ( 'NONE',  ( 0.0000000000000000000, 0.0000000000000000000, 0.0000000000000000000 ) ) ;
#77 = CC_DESIGN_DATE_AND_TIME_ASSIGNMENT ( #112, #46, ( #106 ) ) ;
#78 = ORIENTED_EDGE ( 'NONE', *, *, #131, .T. ) ;
#79 = LOCAL_TIME ( 10, 20, 14.00000000000000000, #19 ) ;
#80 = EDGE_CURVE ( 'NONE', #2, #236, #129, .T. ) ;
#81 = APPROVAL_DATE_TIME ( #99, #173 ) ;
#82 = ORIENTED_EDGE ( 'NONE', *, *, #87, .F. ) ;
#83 = LOCAL_TIME ( 10, 20, 14.00000000000000000, #122 ) ;
#84 = EDGE_CURVE ( 'NONE', #148, #50, #70, .T. ) ;
#85 = PERSON ( 'UNSPECIFIED', 'UNSPECIFIED', 'UNSPECIFIED', ('UNSPECIFIED'), ('UNSPECIFIED'), ('UNSPECIFIED') ) ;
#86 = DATE_AND_TIME ( #26, #83 ) ;
#87 = EDGE_CURVE ( 'NONE', #148, #23, #202, .T. ) ;
#88 = DIRECTION ( 'NONE',  ( -0.0000000000000000000, -1.000000000000000000, -0.0000000000000000000 ) ) ;
#89 = ORIENTED_EDGE ( 'NONE', *, *, #195, .T. ) ;
#90 = VERTEX_POINT ( 'NONE', #158 ) ;
#91 = APPROVAL_PERSON_ORGANIZATION ( #232, #153, #28 ) ;
#92 = LOCAL_TIME ( 10, 20, 14.00000000000000000, #34 ) ;
#93 = DATE_TIME_ROLE ( 'classification_date' ) ;
#94 = FACE_OUTER_BOUND ( 'NONE', #53, .T. ) ;
#95 = PLANE ( 'NONE',  #101 ) ;
#96 =( GEOMETRIC_REPRESENTATION_CONTEXT ( 3 ) GLOBAL_UNCERTAINTY_ASSIGNED_CONTEXT ( ( #191 ) ) GLOBAL_UNIT_ASSIGNED_CONTEXT ( ( #189, #11, #210 ) ) REPRESENTATION_CONTEXT ( 'NONE', 'WORKASPACE' ) );
#97 = FACE_OUTER_BOUND ( 'NONE', #222, .T. ) ;
#98 = CC_DESIGN_PERSON_AND_ORGANIZATION_ASSIGNMENT ( #167, #107, ( #233 ) ) ;
#99 = DATE_AND_TIME ( #217, #92 ) ;
#100 = DIRECTION ( 'NONE',  ( 0.0000000000000000000, -0.0000000000000000000, -1.000000000000000000 ) ) ;
#101 = AXIS2_PLACEMENT_3D ( 'NONE', #32, #144, #17 ) ;
#102 = CARTESIAN_POINT ( 'NONE',  ( 38.00000000000000000, 0.0000000000000000000, 3.000000000000000000 ) ) ;
#103 = LINE ( 'NONE', #69, #3 ) ;
#104 = DIRECTION ( 'NONE',  ( 0.0000000000000000000, 0.0000000000000000000, -1.000000000000000000 ) ) ;
#105 = PLANE ( 'NONE',  #219 ) ;
#106 = PRODUCT_DEFINITION ( 'UNKNOWN', '', #233, #176 ) ;
#107 = PERSON_AND_ORGANIZATION_ROLE ( 'creator' ) ;
#108 = CARTESIAN_POINT ( 'NONE',  ( 38.00000000000000000, 25.00000000000000000, 3.000000000000000000 ) ) ;
#109 = DIRECTION ( 'NONE',  ( 1.000000000000000000, 0.0000000000000000000, 0.0000000000000000000 ) ) ;
#110 = VECTOR ( 'NONE', #199, 1000.000000000000000 ) ;
#111 = FACE_OUTER_BOUND ( 'NONE', #119, .T. ) ;
#112 = DATE_AND_TIME ( #160, #79 ) ;
#113 = VECTOR ( 'NONE', #216, 1000.000000000000000 ) ;
#114 = ORIENTED_EDGE ( 'NONE', *, *, #127, .F. ) ;
#115 = PERSON_AND_ORGANIZATION_ROLE ( 'creator' ) ;
#116 = CARTESIAN_POINT ( 'NONE',  ( 0.0000000000000000000, 0.0000000000000000000, 3.000000000000000000 ) ) ;
#117 = CARTESIAN_POINT ( 'NONE',  ( 0.0000000000000000000, 25.00000000000000000, 0.0000000000000000000 ) ) ;
#118 = MECHANICAL_CONTEXT ( 'NONE', #230, 'mechanical' ) ;
#119 = EDGE_LOOP ( 'NONE', ( #89, #82, #213, #126 ) ) ;
#120 = CC_DESIGN_PERSON_AND_ORGANIZATION_ASSIGNMENT ( #8, #136, ( #22 ) ) ;
#121 = ORIENTED_EDGE ( 'NONE', *, *, #141, .T. ) ;
#122 = COORDINATED_UNIVERSAL_TIME_OFFSET ( 5, 0, .BEHIND. ) ;
#123 = DIRECTION ( 'NONE',  ( -1.000000000000000000, -0.0000000000000000000, -0.0000000000000000000 ) ) ;
#124 = ADVANCED_FACE ( 'NONE', ( #94 ), #125, .T. ) ;
#125 = PLANE ( 'NONE',  #6 ) ;
#126 = ORIENTED_EDGE ( 'NONE', *, *, #196, .T. ) ;
#127 = EDGE_CURVE ( 'NONE', #41, #90, #62, .T. ) ;
#128 = ADVANCED_BREP_SHAPE_REPRESENTATION ( 'Web Model 47026', ( #30, #65 ), #96 ) ;
#129 = LINE ( 'NONE', #147, #206 ) ;
#130 = AXIS2_PLACEMENT_3D ( 'NONE', #13, #155, #100 ) ;
#131 = EDGE_CURVE ( 'NONE', #23, #2, #163, .T. ) ;
#132 = LOCAL_TIME ( 10, 20, 14.00000000000000000, #161 ) ;
#133 = DIRECTION ( 'NONE',  ( -1.000000000000000000, 0.0000000000000000000, -0.0000000000000000000 ) ) ;
#134 = APPROVAL_PERSON_ORGANIZATION ( #57, #177, #212 ) ;
#135 = SECURITY_CLASSIFICATION ( '', '', #14 ) ;
#136 = PERSON_AND_ORGANIZATION_ROLE ( 'design_owner' ) ;
#137 = LINE ( 'NONE', #215, #21 ) ;
#138 = APPLICATION_PROTOCOL_DEFINITION ( 'international standard', 'config_control_design', 1994, #223 ) ;
#139 = PERSON_AND_ORGANIZATION ( #85, #204 ) ;
#140 = VECTOR ( 'NONE', #88, 1000.000000000000000 ) ;
#141 = EDGE_CURVE ( 'NONE', #50, #2, #151, .T. ) ;
#142 = CLOSED_SHELL ( 'NONE', ( #18, #182, #201, #200, #36, #124 ) ) ;
#143 = APPROVAL_STATUS ( 'not_yet_approved' ) ;
#144 = DIRECTION ( 'NONE',  ( 0.0000000000000000000, 0.0000000000000000000, -1.000000000000000000 ) ) ;
#145 = LINE ( 'NONE', #108, #166 ) ;
#146 = PERSON_AND_ORGANIZATION ( #85, #204 ) ;
#147 = CARTESIAN_POINT ( 'NONE',  ( 38.00000000000000000, 0.0000000000000000000, 0.0000000000000000000 ) ) ;
#148 = VERTEX_POINT ( 'NONE', #9 ) ;
#149 = ORIENTED_EDGE ( 'NONE', *, *, #195, .F. ) ;
#150 = CC_DESIGN_PERSON_AND_ORGANIZATION_ASSIGNMENT ( #171, #115, ( #106 ) ) ;
#151 = LINE ( 'NONE', #226, #56 ) ;
#152 = ORIENTED_EDGE ( 'NONE', *, *, #60, .T. ) ;
#153 = APPROVAL ( #47, 'UNSPECIFIED' ) ;
#154 = CC_DESIGN_DATE_AND_TIME_ASSIGNMENT ( #205, #93, ( #135 ) ) ;
#155 = DIRECTION ( 'NONE',  ( 0.0000000000000000000, -1.000000000000000000, 0.0000000000000000000 ) ) ;
#156 = DIRECTION ( 'NONE',  ( 1.000000000000000000, 0.0000000000000000000, 0.0000000000000000000 ) ) ;
#157 = LINE ( 'NONE', #237, #113 ) ;
#158 = CARTESIAN_POINT ( 'NONE',  ( 0.0000000000000000000, 25.00000000000000000, 3.000000000000000000 ) ) ;
#159 = CARTESIAN_POINT ( 'NONE',  ( 0.0000000000000000000, 25.00000000000000000, 3.000000000000000000 ) ) ;
#160 = CALENDAR_DATE ( 2017, 31, 1 ) ;
#161 = COORDINATED_UNIVERSAL_TIME_OFFSET ( 5, 0, .BEHIND. ) ;
#162 = PLANE ( 'NONE',  #40 ) ;
#163 = LINE ( 'NONE', #228, #229 ) ;
#164 = CARTESIAN_POINT ( 'NONE',  ( 0.0000000000000000000, 0.0000000000000000000, 3.000000000000000000 ) ) ;
#165 = CARTESIAN_POINT ( 'NONE',  ( 0.0000000000000000000, 25.00000000000000000, 0.0000000000000000000 ) ) ;
#166 = VECTOR ( 'NONE', #55, 1000.000000000000000 ) ;
#167 = PERSON_AND_ORGANIZATION ( #85, #204 ) ;
#168 = PRODUCT_DEFINITION_SHAPE ( 'NONE', 'NONE',  #106 ) ;
#169 = EDGE_CURVE ( 'NONE', #90, #148, #103, .T. ) ;
#170 = VERTEX_POINT ( 'NONE', #117 ) ;
#171 = PERSON_AND_ORGANIZATION ( #85, #204 ) ;
#172 = DIRECTION ( 'NONE',  ( -0.0000000000000000000, -0.0000000000000000000, -1.000000000000000000 ) ) ;
#173 = APPROVAL ( #143, 'UNSPECIFIED' ) ;
#174 = CARTESIAN_POINT ( 'NONE',  ( 0.0000000000000000000, 0.0000000000000000000, 0.0000000000000000000 ) ) ;
#175 = DIRECTION ( 'NONE',  ( 1.000000000000000000, 0.0000000000000000000, 0.0000000000000000000 ) ) ;
#176 = DESIGN_CONTEXT ( 'detailed design', #223, 'design' ) ;
#177 = APPROVAL ( #66, 'UNSPECIFIED' ) ;
#178 = PERSON_AND_ORGANIZATION ( #85, #204 ) ;
#179 = CARTESIAN_POINT ( 'NONE',  ( 0.0000000000000000000, 0.0000000000000000000, 3.000000000000000000 ) ) ;
#180 = CARTESIAN_POINT ( 'NONE',  ( 38.00000000000000000, 0.0000000000000000000, 3.000000000000000000 ) ) ;
#181 = CARTESIAN_POINT ( 'NONE',  ( 38.00000000000000000, 0.0000000000000000000, 0.0000000000000000000 ) ) ;
#182 = ADVANCED_FACE ( 'NONE', ( #35 ), #105, .F. ) ;
#183 = ORIENTED_EDGE ( 'NONE', *, *, #73, .T. ) ;
#184 = CC_DESIGN_APPROVAL ( #173, ( #135 ) ) ;
#185 = EDGE_LOOP ( 'NONE', ( #183, #16, #114, #29 ) ) ;
#186 = LINE ( 'NONE', #174, #140 ) ;
#187 = DIRECTION ( 'NONE',  ( -1.000000000000000000, -0.0000000000000000000, -0.0000000000000000000 ) ) ;
#188 = CARTESIAN_POINT ( 'NONE',  ( 0.0000000000000000000, 25.00000000000000000, 3.000000000000000000 ) ) ;
#189 =( LENGTH_UNIT ( ) NAMED_UNIT ( * ) SI_UNIT ( .MILLI., .METRE. ) );
#190 = DIRECTION ( 'NONE',  ( -1.000000000000000000, 0.0000000000000000000, 0.0000000000000000000 ) ) ;
#191 = UNCERTAINTY_MEASURE_WITH_UNIT (LENGTH_MEASURE( 1.000000000000000100E-005 ), #189, 'distance_accuracy_value', 'NONE');
#192 = ORIENTED_EDGE ( 'NONE', *, *, #84, .F. ) ;
#193 = CARTESIAN_POINT ( 'NONE',  ( 0.0000000000000000000, 0.0000000000000000000, 0.0000000000000000000 ) ) ;
#194 = APPROVAL_DATE_TIME ( #51, #177 ) ;
#195 = EDGE_CURVE ( 'NONE', #170, #23, #186, .T. ) ;
#196 = EDGE_CURVE ( 'NONE', #90, #170, #1, .T. ) ;
#197 = ORIENTED_EDGE ( 'NONE', *, *, #60, .F. ) ;
#198 = LOCAL_TIME ( 10, 20, 14.00000000000000000, #5 ) ;
#199 = DIRECTION ( 'NONE',  ( 1.000000000000000000, 0.0000000000000000000, 0.0000000000000000000 ) ) ;
#200 = ADVANCED_FACE ( 'NONE', ( #38 ), #27, .F. ) ;
#201 = ADVANCED_FACE ( 'NONE', ( #97 ), #71, .F. ) ;
#202 = LINE ( 'NONE', #39, #221 ) ;
#203 = ORIENTED_EDGE ( 'NONE', *, *, #127, .T. ) ;
#204 = ORGANIZATION ( 'UNSPECIFIED', 'UNSPECIFIED', '' ) ;
#205 = DATE_AND_TIME ( #68, #132 ) ;
#206 = VECTOR ( 'NONE', #58, 1000.000000000000000 ) ;
#207 = CARTESIAN_POINT ( 'NONE',  ( 38.00000000000000000, 25.00000000000000000, 0.0000000000000000000 ) ) ;
#208 = ORIENTED_EDGE ( 'NONE', *, *, #169, .T. ) ;
#209 = DIRECTION ( 'NONE',  ( 0.0000000000000000000, 1.000000000000000000, 0.0000000000000000000 ) ) ;
#210 =( NAMED_UNIT ( * ) SI_UNIT ( $, .STERADIAN. ) SOLID_ANGLE_UNIT ( ) );
#211 = DIRECTION ( 'NONE',  ( 0.0000000000000000000, 0.0000000000000000000, 1.000000000000000000 ) ) ;
#212 = APPROVAL_ROLE ( '' ) ;
#213 = ORIENTED_EDGE ( 'NONE', *, *, #169, .F. ) ;
#214 = CC_DESIGN_APPROVAL ( #153, ( #106 ) ) ;
#215 = CARTESIAN_POINT ( 'NONE',  ( 0.0000000000000000000, 25.00000000000000000, 0.0000000000000000000 ) ) ;
#216 = DIRECTION ( 'NONE',  ( 0.0000000000000000000, 1.000000000000000000, 0.0000000000000000000 ) ) ;
#217 = CALENDAR_DATE ( 2017, 31, 1 ) ;
#218 = AXIS2_PLACEMENT_3D ( 'NONE', #102, #190, #10 ) ;
#219 = AXIS2_PLACEMENT_3D ( 'NONE', #116, #209, #227 ) ;
#220 = SHAPE_DEFINITION_REPRESENTATION ( #168, #128 ) ;
#221 = VECTOR ( 'NONE', #59, 1000.000000000000000 ) ;
#222 = EDGE_LOOP ( 'NONE', ( #43, #37, #197, #121 ) ) ;
#223 = APPLICATION_CONTEXT ( 'configuration controlled 3d designs of mechanical parts and assemblies' ) ;
#224 = ORIENTED_EDGE ( 'NONE', *, *, #141, .F. ) ;
#225 = CC_DESIGN_PERSON_AND_ORGANIZATION_ASSIGNMENT ( #178, #74, ( #135 ) ) ;
#226 = CARTESIAN_POINT ( 'NONE',  ( 38.00000000000000000, 0.0000000000000000000, 3.000000000000000000 ) ) ;
#227 = DIRECTION ( 'NONE',  ( 0.0000000000000000000, -0.0000000000000000000, 1.000000000000000000 ) ) ;
#228 = CARTESIAN_POINT ( 'NONE',  ( 0.0000000000000000000, 0.0000000000000000000, 0.0000000000000000000 ) ) ;
#229 = VECTOR ( 'NONE', #175, 1000.000000000000000 ) ;
#230 = APPLICATION_CONTEXT ( 'configuration controlled 3d designs of mechanical parts and assemblies' ) ;
#231 = PERSON_AND_ORGANIZATION_ROLE ( 'design_supplier' ) ;
#232 = PERSON_AND_ORGANIZATION ( #85, #204 ) ;
#233 = PRODUCT_DEFINITION_FORMATION_WITH_SPECIFIED_SOURCE ( 'ANY', '', #22, .NOT_KNOWN. ) ;
#234 = CC_DESIGN_SECURITY_CLASSIFICATION ( #135, ( #233 ) ) ;
#235 = DIRECTION ( 'NONE',  ( 0.0000000000000000000, 0.0000000000000000000, -1.000000000000000000 ) ) ;
#236 = VERTEX_POINT ( 'NONE', #207 ) ;
#237 = CARTESIAN_POINT ( 'NONE',  ( 38.00000000000000000, 0.0000000000000000000, 3.000000000000000000 ) ) ;
ENDSEC;
END-ISO-10303-21;
