ISO-10303-21;
HEADER;
FILE_DESCRIPTION (( 'STEP AP203' ),
    '1' );
FILE_NAME ('Web Model 41021MX_43004.step',
    '2017-10-30T12:53:50',
    ( '' ),
    ( '' ),
    'SwSTEP 2.0',
    'SolidWorks 2016',
    '' );
FILE_SCHEMA (( 'CONFIG_CONTROL_DESIGN' ));
ENDSEC;

DATA;
#1 = ORIENTED_EDGE ( 'NONE', *, *, #22, .T. ) ;
#2 = CARTESIAN_POINT ( 'NONE',  ( 12.49999999999999600, -6.249999999999998200, 4.750000000000000000 ) ) ;
#3 = ORIENTED_EDGE ( 'NONE', *, *, #60, .T. ) ;
#4 = CARTESIAN_POINT ( 'NONE',  ( -12.50000000000000400, 6.249999999999998200, 4.750000000000000000 ) ) ;
#5 = CARTESIAN_POINT ( 'NONE',  ( 12.49999999999999600, -6.249999999999998200, 4.750000000000000000 ) ) ;
#6 = EDGE_CURVE ( 'NONE', #228, #102, #195, .T. ) ;
#7 = DIRECTION ( 'NONE',  ( 0.0000000000000000000, 0.0000000000000000000, 1.000000000000000000 ) ) ;
#8 = PERSON_AND_ORGANIZATION ( #120, #16 ) ;
#9 = PLANE ( 'NONE',  #91 ) ;
#10 = APPROVAL ( #162, 'UNSPECIFIED' ) ;
#11 = CARTESIAN_POINT ( 'NONE',  ( 12.49999999999999600, -6.249999999999998200, -4.750000000000000000 ) ) ;
#12 = APPLICATION_PROTOCOL_DEFINITION ( 'international standard', 'config_control_design', 1994, #35 ) ;
#13 = APPROVAL_STATUS ( 'not_yet_approved' ) ;
#14 = PERSON_AND_ORGANIZATION ( #120, #16 ) ;
#15 = UNCERTAINTY_MEASURE_WITH_UNIT (LENGTH_MEASURE( 1.000000000000000100E-005 ), #181, 'distance_accuracy_value', 'NONE');
#16 = ORGANIZATION ( 'UNSPECIFIED', 'UNSPECIFIED', '' ) ;
#17 = ORIENTED_EDGE ( 'NONE', *, *, #232, .T. ) ;
#18 = PERSON_AND_ORGANIZATION_ROLE ( 'creator' ) ;
#19 = EDGE_LOOP ( 'NONE', ( #202, #235, #166, #125 ) ) ;
#20 = ORIENTED_EDGE ( 'NONE', *, *, #96, .F. ) ;
#21 = CC_DESIGN_SECURITY_CLASSIFICATION ( #113, ( #233 ) ) ;
#22 = EDGE_CURVE ( 'NONE', #102, #172, #175, .T. ) ;
#23 = ADVANCED_FACE ( 'NONE', ( #183 ), #65, .F. ) ;
#24 = CC_DESIGN_APPROVAL ( #10, ( #233 ) ) ;
#25 = EDGE_LOOP ( 'NONE', ( #17, #37, #66, #193 ) ) ;
#26 = COORDINATED_UNIVERSAL_TIME_OFFSET ( 5, 0, .BEHIND. ) ;
#27 = DIRECTION ( 'NONE',  ( 0.0000000000000000000, 1.000000000000000000, 0.0000000000000000000 ) ) ;
#28 = CARTESIAN_POINT ( 'NONE',  ( -12.50000000000000400, -6.250000000000001800, -4.750000000000000000 ) ) ;
#29 = EDGE_LOOP ( 'NONE', ( #62, #49, #159, #40 ) ) ;
#30 = EDGE_CURVE ( 'NONE', #118, #139, #179, .T. ) ;
#31 = DATE_TIME_ROLE ( 'creation_date' ) ;
#32 = CARTESIAN_POINT ( 'NONE',  ( 12.49999999999999600, 6.250000000000000000, 4.750000000000000000 ) ) ;
#33 = DIRECTION ( 'NONE',  ( 1.000000000000000000, 0.0000000000000000000, -0.0000000000000000000 ) ) ;
#34 = APPROVAL_DATE_TIME ( #199, #10 ) ;
#35 = APPLICATION_CONTEXT ( 'configuration controlled 3d designs of mechanical parts and assemblies' ) ;
#36 = DIRECTION ( 'NONE',  ( -0.0000000000000000000, -0.0000000000000000000, -1.000000000000000000 ) ) ;
#37 = ORIENTED_EDGE ( 'NONE', *, *, #60, .F. ) ;
#38 = CC_DESIGN_PERSON_AND_ORGANIZATION_ASSIGNMENT ( #198, #18, ( #233 ) ) ;
#39 = CALENDAR_DATE ( 2017, 30, 10 ) ;
#40 = ORIENTED_EDGE ( 'NONE', *, *, #124, .T. ) ;
#41 = LINE ( 'NONE', #144, #94 ) ;
#42 = ORIENTED_EDGE ( 'NONE', *, *, #22, .F. ) ;
#43 = LOCAL_TIME ( 8, 53, 50.00000000000000000, #187 ) ;
#44 = FACE_OUTER_BOUND ( 'NONE', #25, .T. ) ;
#45 = APPROVAL_DATE_TIME ( #58, #217 ) ;
#46 = DIRECTION ( 'NONE',  ( 0.0000000000000000000, 0.0000000000000000000, -1.000000000000000000 ) ) ;
#47 = COORDINATED_UNIVERSAL_TIME_OFFSET ( 5, 0, .BEHIND. ) ;
#48 = CARTESIAN_POINT ( 'NONE',  ( 0.0000000000000000000, 0.0000000000000000000, -4.750000000000000000 ) ) ;
#49 = ORIENTED_EDGE ( 'NONE', *, *, #30, .F. ) ;
#50 = DIRECTION ( 'NONE',  ( 0.0000000000000000000, -0.0000000000000000000, 1.000000000000000000 ) ) ;
#51 = DIRECTION ( 'NONE',  ( 1.000000000000000000, 0.0000000000000000000, -0.0000000000000000000 ) ) ;
#52 = PRODUCT_RELATED_PRODUCT_CATEGORY ( 'detail', '', ( #63 ) ) ;
#53 = DIRECTION ( 'NONE',  ( 1.000000000000000000, 6.938893903907228400E-017, 0.0000000000000000000 ) ) ;
#54 = DIRECTION ( 'NONE',  ( -1.000000000000000000, -1.387778780781445700E-016, 0.0000000000000000000 ) ) ;
#55 = APPROVAL_PERSON_ORGANIZATION ( #161, #217, #196 ) ;
#56 = COORDINATED_UNIVERSAL_TIME_OFFSET ( 5, 0, .BEHIND. ) ;
#57 = EDGE_LOOP ( 'NONE', ( #77, #115, #42, #3 ) ) ;
#58 = DATE_AND_TIME ( #99, #104 ) ;
#59 = MANIFOLD_SOLID_BREP ( 'Boss-Extrude1', #72 ) ;
#60 = EDGE_CURVE ( 'NONE', #102, #218, #114, .T. ) ;
#61 = ADVANCED_FACE ( 'NONE', ( #236 ), #158, .F. ) ;
#62 = ORIENTED_EDGE ( 'NONE', *, *, #200, .T. ) ;
#63 = PRODUCT ( 'Web Model 41021MX_43004', 'Web Model 41021MX_43004', '', ( #167 ) ) ;
#64 = CC_DESIGN_PERSON_AND_ORGANIZATION_ASSIGNMENT ( #75, #213, ( #233 ) ) ;
#65 = PLANE ( 'NONE',  #188 ) ;
#66 = ORIENTED_EDGE ( 'NONE', *, *, #6, .F. ) ;
#67 = CARTESIAN_POINT ( 'NONE',  ( -12.50000000000000400, -6.250000000000001800, -4.750000000000000000 ) ) ;
#68 = CALENDAR_DATE ( 2017, 30, 10 ) ;
#69 = CARTESIAN_POINT ( 'NONE',  ( 12.49999999999999600, -6.249999999999998200, 4.750000000000000000 ) ) ;
#70 = VERTEX_POINT ( 'NONE', #67 ) ;
#71 = CARTESIAN_POINT ( 'NONE',  ( -12.50000000000000400, 6.249999999999998200, -4.750000000000000000 ) ) ;
#72 = CLOSED_SHELL ( 'NONE', ( #61, #135, #23, #157, #201, #136 ) ) ;
#73 = EDGE_CURVE ( 'NONE', #172, #118, #147, .T. ) ;
#74 =( NAMED_UNIT ( * ) PLANE_ANGLE_UNIT ( ) SI_UNIT ( $, .RADIAN. ) );
#75 = PERSON_AND_ORGANIZATION ( #120, #16 ) ;
#76 = EDGE_CURVE ( 'NONE', #139, #171, #186, .T. ) ;
#77 = ORIENTED_EDGE ( 'NONE', *, *, #96, .T. ) ;
#78 = APPROVAL_DATE_TIME ( #173, #131 ) ;
#79 = AXIS2_PLACEMENT_3D ( 'NONE', #48, #210, #51 ) ;
#80 = DESIGN_CONTEXT ( 'detailed design', #191, 'design' ) ;
#81 = VECTOR ( 'NONE', #230, 1000.000000000000000 ) ;
#82 = PERSON_AND_ORGANIZATION_ROLE ( 'creator' ) ;
#83 = CARTESIAN_POINT ( 'NONE',  ( 12.49999999999999600, -6.249999999999998200, 4.750000000000000000 ) ) ;
#84 = DIRECTION ( 'NONE',  ( 1.000000000000000000, 1.387778780781445700E-016, -0.0000000000000000000 ) ) ;
#85 = DIRECTION ( 'NONE',  ( 1.000000000000000000, 0.0000000000000000000, 0.0000000000000000000 ) ) ;
#86 = APPROVAL_ROLE ( '' ) ;
#87 = DATE_TIME_ROLE ( 'classification_date' ) ;
#88 = VECTOR ( 'NONE', #27, 1000.000000000000000 ) ;
#89 = CC_DESIGN_PERSON_AND_ORGANIZATION_ASSIGNMENT ( #8, #168, ( #63 ) ) ;
#90 = ORIENTED_EDGE ( 'NONE', *, *, #76, .F. ) ;
#91 = AXIS2_PLACEMENT_3D ( 'NONE', #163, #50, #33 ) ;
#92 = LINE ( 'NONE', #28, #226 ) ;
#93 = CALENDAR_DATE ( 2017, 30, 10 ) ;
#94 = VECTOR ( 'NONE', #36, 1000.000000000000000 ) ;
#95 = ORIENTED_EDGE ( 'NONE', *, *, #232, .F. ) ;
#96 = EDGE_CURVE ( 'NONE', #218, #70, #92, .T. ) ;
#97 = DIRECTION ( 'NONE',  ( 1.000000000000000000, 0.0000000000000000000, 0.0000000000000000000 ) ) ;
#98 = LINE ( 'NONE', #207, #231 ) ;
#99 = CALENDAR_DATE ( 2017, 30, 10 ) ;
#100 = APPROVAL_PERSON_ORGANIZATION ( #14, #10, #108 ) ;
#101 = AXIS2_PLACEMENT_3D ( 'NONE', #106, #229, #85 ) ;
#102 = VERTEX_POINT ( 'NONE', #204 ) ;
#103 = ORIENTED_EDGE ( 'NONE', *, *, #216, .T. ) ;
#104 = LOCAL_TIME ( 8, 53, 50.00000000000000000, #111 ) ;
#105 = PLANE ( 'NONE',  #79 ) ;
#106 = CARTESIAN_POINT ( 'NONE',  ( 0.0000000000000000000, 0.0000000000000000000, 0.0000000000000000000 ) ) ;
#107 = EDGE_LOOP ( 'NONE', ( #1, #165, #103, #219 ) ) ;
#108 = APPROVAL_ROLE ( '' ) ;
#109 = FACE_OUTER_BOUND ( 'NONE', #151, .T. ) ;
#110 = PERSON_AND_ORGANIZATION_ROLE ( 'classification_officer' ) ;
#111 = COORDINATED_UNIVERSAL_TIME_OFFSET ( 5, 0, .BEHIND. ) ;
#112 =( GEOMETRIC_REPRESENTATION_CONTEXT ( 3 ) GLOBAL_UNCERTAINTY_ASSIGNED_CONTEXT ( ( #15 ) ) GLOBAL_UNIT_ASSIGNED_CONTEXT ( ( #181, #74, #180 ) ) REPRESENTATION_CONTEXT ( 'NONE', 'WORKASPACE' ) );
#113 = SECURITY_CLASSIFICATION ( '', '', #130 ) ;
#114 = LINE ( 'NONE', #4, #150 ) ;
#115 = ORIENTED_EDGE ( 'NONE', *, *, #124, .F. ) ;
#116 = PRODUCT_DEFINITION ( 'UNKNOWN', '', #233, #80 ) ;
#117 = DATE_AND_TIME ( #93, #43 ) ;
#118 = VERTEX_POINT ( 'NONE', #69 ) ;
#119 = CARTESIAN_POINT ( 'NONE',  ( -12.50000000000000400, -6.250000000000001800, 4.750000000000000000 ) ) ;
#120 = PERSON ( 'UNSPECIFIED', 'UNSPECIFIED', 'UNSPECIFIED', ('UNSPECIFIED'), ('UNSPECIFIED'), ('UNSPECIFIED') ) ;
#121 = DIRECTION ( 'NONE',  ( -0.0000000000000000000, -1.000000000000000000, -0.0000000000000000000 ) ) ;
#122 = VECTOR ( 'NONE', #190, 1000.000000000000000 ) ;
#123 = PLANE ( 'NONE',  #184 ) ;
#124 = EDGE_CURVE ( 'NONE', #172, #70, #137, .T. ) ;
#125 = ORIENTED_EDGE ( 'NONE', *, *, #30, .T. ) ;
#126 = PERSON_AND_ORGANIZATION ( #120, #16 ) ;
#127 = CARTESIAN_POINT ( 'NONE',  ( 12.49999999999999600, 6.250000000000000000, 4.750000000000000000 ) ) ;
#128 = CARTESIAN_POINT ( 'NONE',  ( 12.49999999999999600, 6.250000000000000000, -4.750000000000000000 ) ) ;
#129 = ADVANCED_BREP_SHAPE_REPRESENTATION ( 'Web Model 41021MX_43004', ( #59, #101 ), #112 ) ;
#130 = SECURITY_CLASSIFICATION_LEVEL ( 'unclassified' ) ;
#131 = APPROVAL ( #13, 'UNSPECIFIED' ) ;
#132 = LINE ( 'NONE', #164, #81 ) ;
#133 = FACE_OUTER_BOUND ( 'NONE', #107, .T. ) ;
#134 = CC_DESIGN_APPROVAL ( #217, ( #113 ) ) ;
#135 = ADVANCED_FACE ( 'NONE', ( #182 ), #194, .F. ) ;
#136 = ADVANCED_FACE ( 'NONE', ( #109 ), #105, .F. ) ;
#137 = LINE ( 'NONE', #227, #224 ) ;
#138 = DIRECTION ( 'NONE',  ( 1.000000000000000000, 1.387778780781445700E-016, -0.0000000000000000000 ) ) ;
#139 = VERTEX_POINT ( 'NONE', #143 ) ;
#140 = CARTESIAN_POINT ( 'NONE',  ( 12.49999999999999600, -6.249999999999998200, -4.750000000000000000 ) ) ;
#141 = CC_DESIGN_APPROVAL ( #131, ( #116 ) ) ;
#142 = LINE ( 'NONE', #11, #153 ) ;
#143 = CARTESIAN_POINT ( 'NONE',  ( 12.49999999999999600, -6.249999999999998200, -4.750000000000000000 ) ) ;
#144 = CARTESIAN_POINT ( 'NONE',  ( 12.49999999999999600, 6.250000000000000000, 4.750000000000000000 ) ) ;
#145 = CARTESIAN_POINT ( 'NONE',  ( -12.50000000000000400, -6.250000000000001800, 4.750000000000000000 ) ) ;
#146 = DIRECTION ( 'NONE',  ( 6.938893903907228400E-017, -1.000000000000000000, 0.0000000000000000000 ) ) ;
#147 = LINE ( 'NONE', #2, #211 ) ;
#148 = PERSON_AND_ORGANIZATION ( #120, #16 ) ;
#149 = LOCAL_TIME ( 8, 53, 50.00000000000000000, #56 ) ;
#150 = VECTOR ( 'NONE', #160, 1000.000000000000000 ) ;
#151 = EDGE_LOOP ( 'NONE', ( #20, #95, #90, #185 ) ) ;
#152 = PRODUCT_DEFINITION_SHAPE ( 'NONE', 'NONE',  #116 ) ;
#153 = VECTOR ( 'NONE', #84, 1000.000000000000000 ) ;
#154 = CC_DESIGN_PERSON_AND_ORGANIZATION_ASSIGNMENT ( #126, #82, ( #116 ) ) ;
#155 = APPROVAL_PERSON_ORGANIZATION ( #197, #131, #86 ) ;
#156 = CC_DESIGN_PERSON_AND_ORGANIZATION_ASSIGNMENT ( #148, #110, ( #113 ) ) ;
#157 = ADVANCED_FACE ( 'NONE', ( #44 ), #123, .F. ) ;
#158 = PLANE ( 'NONE',  #222 ) ;
#159 = ORIENTED_EDGE ( 'NONE', *, *, #73, .F. ) ;
#160 = DIRECTION ( 'NONE',  ( -0.0000000000000000000, -0.0000000000000000000, -1.000000000000000000 ) ) ;
#161 = PERSON_AND_ORGANIZATION ( #120, #16 ) ;
#162 = APPROVAL_STATUS ( 'not_yet_approved' ) ;
#163 = CARTESIAN_POINT ( 'NONE',  ( 0.0000000000000000000, 0.0000000000000000000, 4.750000000000000000 ) ) ;
#164 = CARTESIAN_POINT ( 'NONE',  ( 12.49999999999999600, -6.249999999999998200, 4.750000000000000000 ) ) ;
#165 = ORIENTED_EDGE ( 'NONE', *, *, #73, .T. ) ;
#166 = ORIENTED_EDGE ( 'NONE', *, *, #216, .F. ) ;
#167 = MECHANICAL_CONTEXT ( 'NONE', #35, 'mechanical' ) ;
#168 = PERSON_AND_ORGANIZATION_ROLE ( 'design_owner' ) ;
#169 = SHAPE_DEFINITION_REPRESENTATION ( #152, #129 ) ;
#170 = DATE_AND_TIME ( #214, #209 ) ;
#171 = VERTEX_POINT ( 'NONE', #128 ) ;
#172 = VERTEX_POINT ( 'NONE', #145 ) ;
#173 = DATE_AND_TIME ( #39, #234 ) ;
#174 = CARTESIAN_POINT ( 'NONE',  ( -12.50000000000000400, -6.250000000000001800, 4.750000000000000000 ) ) ;
#175 = LINE ( 'NONE', #119, #192 ) ;
#176 = EDGE_CURVE ( 'NONE', #228, #171, #41, .T. ) ;
#177 = DIRECTION ( 'NONE',  ( -1.000000000000000000, 0.0000000000000000000, 0.0000000000000000000 ) ) ;
#178 = DIRECTION ( 'NONE',  ( -0.0000000000000000000, -0.0000000000000000000, -1.000000000000000000 ) ) ;
#179 = LINE ( 'NONE', #220, #189 ) ;
#180 =( NAMED_UNIT ( * ) SI_UNIT ( $, .STERADIAN. ) SOLID_ANGLE_UNIT ( ) );
#181 =( LENGTH_UNIT ( ) NAMED_UNIT ( * ) SI_UNIT ( .MILLI., .METRE. ) );
#182 = FACE_OUTER_BOUND ( 'NONE', #29, .T. ) ;
#183 = FACE_OUTER_BOUND ( 'NONE', #19, .T. ) ;
#184 = AXIS2_PLACEMENT_3D ( 'NONE', #127, #146, #53 ) ;
#185 = ORIENTED_EDGE ( 'NONE', *, *, #200, .F. ) ;
#186 = LINE ( 'NONE', #140, #88 ) ;
#187 = COORDINATED_UNIVERSAL_TIME_OFFSET ( 5, 0, .BEHIND. ) ;
#188 = AXIS2_PLACEMENT_3D ( 'NONE', #5, #177, #7 ) ;
#189 = VECTOR ( 'NONE', #223, 1000.000000000000000 ) ;
#190 = DIRECTION ( 'NONE',  ( -1.000000000000000000, -6.938893903907228400E-017, 0.0000000000000000000 ) ) ;
#191 = APPLICATION_CONTEXT ( 'configuration controlled 3d designs of mechanical parts and assemblies' ) ;
#192 = VECTOR ( 'NONE', #203, 1000.000000000000000 ) ;
#193 = ORIENTED_EDGE ( 'NONE', *, *, #176, .T. ) ;
#194 = PLANE ( 'NONE',  #237 ) ;
#195 = LINE ( 'NONE', #221, #122 ) ;
#196 = APPROVAL_ROLE ( '' ) ;
#197 = PERSON_AND_ORGANIZATION ( #120, #16 ) ;
#198 = PERSON_AND_ORGANIZATION ( #120, #16 ) ;
#199 = DATE_AND_TIME ( #68, #149 ) ;
#200 = EDGE_CURVE ( 'NONE', #70, #139, #142, .T. ) ;
#201 = ADVANCED_FACE ( 'NONE', ( #133 ), #9, .T. ) ;
#202 = ORIENTED_EDGE ( 'NONE', *, *, #76, .T. ) ;
#203 = DIRECTION ( 'NONE',  ( -0.0000000000000000000, -1.000000000000000000, -0.0000000000000000000 ) ) ;
#204 = CARTESIAN_POINT ( 'NONE',  ( -12.50000000000000400, 6.249999999999998200, 4.750000000000000000 ) ) ;
#205 = DIRECTION ( 'NONE',  ( -1.387778780781445700E-016, 1.000000000000000000, 0.0000000000000000000 ) ) ;
#206 = CC_DESIGN_DATE_AND_TIME_ASSIGNMENT ( #170, #31, ( #116 ) ) ;
#207 = CARTESIAN_POINT ( 'NONE',  ( 12.49999999999999600, 6.250000000000000000, -4.750000000000000000 ) ) ;
#208 = DIRECTION ( 'NONE',  ( -1.000000000000000000, -6.938893903907228400E-017, 0.0000000000000000000 ) ) ;
#209 = LOCAL_TIME ( 8, 53, 50.00000000000000000, #26 ) ;
#210 = DIRECTION ( 'NONE',  ( 0.0000000000000000000, -0.0000000000000000000, 1.000000000000000000 ) ) ;
#211 = VECTOR ( 'NONE', #138, 1000.000000000000000 ) ;
#212 = APPROVAL_STATUS ( 'not_yet_approved' ) ;
#213 = PERSON_AND_ORGANIZATION_ROLE ( 'design_supplier' ) ;
#214 = CALENDAR_DATE ( 2017, 30, 10 ) ;
#215 = CC_DESIGN_DATE_AND_TIME_ASSIGNMENT ( #117, #87, ( #113 ) ) ;
#216 = EDGE_CURVE ( 'NONE', #118, #228, #132, .T. ) ;
#217 = APPROVAL ( #212, 'UNSPECIFIED' ) ;
#218 = VERTEX_POINT ( 'NONE', #71 ) ;
#219 = ORIENTED_EDGE ( 'NONE', *, *, #6, .T. ) ;
#220 = CARTESIAN_POINT ( 'NONE',  ( 12.49999999999999600, -6.249999999999998200, 4.750000000000000000 ) ) ;
#221 = CARTESIAN_POINT ( 'NONE',  ( 12.49999999999999600, 6.250000000000000000, 4.750000000000000000 ) ) ;
#222 = AXIS2_PLACEMENT_3D ( 'NONE', #174, #97, #46 ) ;
#223 = DIRECTION ( 'NONE',  ( -0.0000000000000000000, -0.0000000000000000000, -1.000000000000000000 ) ) ;
#224 = VECTOR ( 'NONE', #178, 1000.000000000000000 ) ;
#225 = APPLICATION_PROTOCOL_DEFINITION ( 'international standard', 'config_control_design', 1994, #191 ) ;
#226 = VECTOR ( 'NONE', #121, 1000.000000000000000 ) ;
#227 = CARTESIAN_POINT ( 'NONE',  ( -12.50000000000000400, -6.250000000000001800, 4.750000000000000000 ) ) ;
#228 = VERTEX_POINT ( 'NONE', #32 ) ;
#229 = DIRECTION ( 'NONE',  ( 0.0000000000000000000, 0.0000000000000000000, 1.000000000000000000 ) ) ;
#230 = DIRECTION ( 'NONE',  ( 0.0000000000000000000, 1.000000000000000000, 0.0000000000000000000 ) ) ;
#231 = VECTOR ( 'NONE', #208, 1000.000000000000000 ) ;
#232 = EDGE_CURVE ( 'NONE', #171, #218, #98, .T. ) ;
#233 = PRODUCT_DEFINITION_FORMATION_WITH_SPECIFIED_SOURCE ( 'ANY', '', #63, .NOT_KNOWN. ) ;
#234 = LOCAL_TIME ( 8, 53, 50.00000000000000000, #47 ) ;
#235 = ORIENTED_EDGE ( 'NONE', *, *, #176, .F. ) ;
#236 = FACE_OUTER_BOUND ( 'NONE', #57, .T. ) ;
#237 = AXIS2_PLACEMENT_3D ( 'NONE', #83, #205, #54 ) ;
ENDSEC;
END-ISO-10303-21;
