ISO-10303-21;
HEADER;
FILE_DESCRIPTION (( 'STEP AP203' ),
    '1' );
FILE_NAME ('Web Model 43215_43221.step',
    '2018-03-12T19:17:04',
    ( '' ),
    ( '' ),
    'SwSTEP 2.0',
    'SolidWorks 2016',
    '' );
FILE_SCHEMA (( 'CONFIG_CONTROL_DESIGN' ));
ENDSEC;

DATA;
#1 = EDGE_CURVE ( 'NONE', #94, #118, #15, .T. ) ;
#2 = ORIENTED_EDGE ( 'NONE', *, *, #54, .F. ) ;
#3 = CARTESIAN_POINT ( 'NONE',  ( 0.0000000000000000000, 0.0000000000000000000, 0.0000000000000000000 ) ) ;
#4 = DATE_TIME_ROLE ( 'creation_date' ) ;
#6 = AXIS2_PLACEMENT_3D ( 'NONE', #22, #110, #186 ) ;
#5 = COORDINATED_UNIVERSAL_TIME_OFFSET ( 5, 0, .BEHIND. ) ;
#7 = VERTEX_POINT ( 'NONE', #157 ) ;
#8 = EDGE_CURVE ( 'NONE', #97, #211, #79, .T. ) ;
#9 = VECTOR ( 'NONE', #53, 1000.000000000000000 ) ;
#10 = ORIENTED_EDGE ( 'NONE', *, *, #107, .F. ) ;
#11 = CC_DESIGN_DATE_AND_TIME_ASSIGNMENT ( #194, #4, ( #47 ) ) ;
#12 = COORDINATED_UNIVERSAL_TIME_OFFSET ( 5, 0, .BEHIND. ) ;
#13 = ADVANCED_FACE ( 'NONE', ( #222 ), #66, .F. ) ;
#14 = APPROVAL ( #227, 'UNSPECIFIED' ) ;
#15 = LINE ( 'NONE', #139, #229 ) ;
#16 = CARTESIAN_POINT ( 'NONE',  ( 4.750000000000000000, -6.250000000000007100, -12.49999999999999600 ) ) ;
#17 = EDGE_CURVE ( 'NONE', #94, #51, #216, .T. ) ;
#18 = DIRECTION ( 'NONE',  ( -0.0000000000000000000, -1.000000000000000000, -1.387778780781445200E-016 ) ) ;
#19 = VECTOR ( 'NONE', #219, 1000.000000000000000 ) ;
#20 = DIRECTION ( 'NONE',  ( -0.0000000000000000000, -5.551115123125782700E-016, 1.000000000000000000 ) ) ;
#21 = UNCERTAINTY_MEASURE_WITH_UNIT (LENGTH_MEASURE( 1.000000000000000100E-005 ), #166, 'distance_accuracy_value', 'NONE');
#22 = CARTESIAN_POINT ( 'NONE',  ( 4.750000000000000000, -6.250000000000007100, 12.49999999999999600 ) ) ;
#23 = APPLICATION_PROTOCOL_DEFINITION ( 'international standard', 'config_control_design', 1994, #125 ) ;
#24 = PERSON_AND_ORGANIZATION_ROLE ( 'classification_officer' ) ;
#25 = CC_DESIGN_PERSON_AND_ORGANIZATION_ASSIGNMENT ( #120, #24, ( #137 ) ) ;
#26 = LINE ( 'NONE', #16, #214 ) ;
#27 = EDGE_CURVE ( 'NONE', #51, #7, #232, .T. ) ;
#28 = EDGE_CURVE ( 'NONE', #118, #7, #78, .T. ) ;
#29 = VECTOR ( 'NONE', #223, 1000.000000000000000 ) ;
#30 = CARTESIAN_POINT ( 'NONE',  ( 4.750000000000000000, 6.249999999999996400, 12.49999999999999800 ) ) ;
#31 = LINE ( 'NONE', #70, #19 ) ;
#32 = EDGE_LOOP ( 'NONE', ( #190, #195, #133, #138 ) ) ;
#33 = EDGE_CURVE ( 'NONE', #7, #126, #158, .T. ) ;
#34 = CARTESIAN_POINT ( 'NONE',  ( 4.750000000000000000, 6.249999999999996400, 12.49999999999999800 ) ) ;
#35 = FACE_OUTER_BOUND ( 'NONE', #108, .T. ) ;
#36 = ORIENTED_EDGE ( 'NONE', *, *, #116, .T. ) ;
#37 = APPROVAL_ROLE ( '' ) ;
#38 = ORIENTED_EDGE ( 'NONE', *, *, #28, .T. ) ;
#39 = CARTESIAN_POINT ( 'NONE',  ( -4.750000000000000000, -6.250000000000007100, 12.49999999999999600 ) ) ;
#40 = EDGE_CURVE ( 'NONE', #51, #97, #31, .T. ) ;
#41 = DIRECTION ( 'NONE',  ( 0.0000000000000000000, 0.0000000000000000000, 1.000000000000000000 ) ) ;
#42 = LOCAL_TIME ( 15, 17, 4.000000000000000000, #96 ) ;
#43 = ORIENTED_EDGE ( 'NONE', *, *, #17, .F. ) ;
#44 = COORDINATED_UNIVERSAL_TIME_OFFSET ( 5, 0, .BEHIND. ) ;
#45 = COORDINATED_UNIVERSAL_TIME_OFFSET ( 5, 0, .BEHIND. ) ;
#46 = ORIENTED_EDGE ( 'NONE', *, *, #8, .F. ) ;
#47 = PRODUCT_DEFINITION ( 'UNKNOWN', '', #52, #183 ) ;
#48 = APPROVAL_DATE_TIME ( #102, #69 ) ;
#49 = AXIS2_PLACEMENT_3D ( 'NONE', #3, #150, #184 ) ;
#50 = APPROVAL_PERSON_ORGANIZATION ( #146, #69, #37 ) ;
#51 = VERTEX_POINT ( 'NONE', #220 ) ;
#52 = PRODUCT_DEFINITION_FORMATION_WITH_SPECIFIED_SOURCE ( 'ANY', '', #95, .NOT_KNOWN. ) ;
#53 = DIRECTION ( 'NONE',  ( -1.000000000000000000, -0.0000000000000000000, -0.0000000000000000000 ) ) ;
#54 = EDGE_CURVE ( 'NONE', #97, #126, #228, .T. ) ;
#55 = APPROVAL_STATUS ( 'not_yet_approved' ) ;
#56 = ORIENTED_EDGE ( 'NONE', *, *, #40, .F. ) ;
#57 = DATE_TIME_ROLE ( 'classification_date' ) ;
#58 = DIRECTION ( 'NONE',  ( -1.000000000000000000, 0.0000000000000000000, 0.0000000000000000000 ) ) ;
#59 = PRODUCT_RELATED_PRODUCT_CATEGORY ( 'detail', '', ( #95 ) ) ;
#60 = PERSON_AND_ORGANIZATION_ROLE ( 'creator' ) ;
#61 = FACE_OUTER_BOUND ( 'NONE', #136, .T. ) ;
#62 = CC_DESIGN_PERSON_AND_ORGANIZATION_ASSIGNMENT ( #218, #60, ( #47 ) ) ;
#63 = VECTOR ( 'NONE', #204, 1000.000000000000000 ) ;
#64 = CC_DESIGN_PERSON_AND_ORGANIZATION_ASSIGNMENT ( #81, #151, ( #95 ) ) ;
#65 = CC_DESIGN_DATE_AND_TIME_ASSIGNMENT ( #98, #57, ( #137 ) ) ;
#66 = PLANE ( 'NONE',  #80 ) ;
#67 = EDGE_LOOP ( 'NONE', ( #154, #233, #122, #174 ) ) ;
#69 = APPROVAL ( #123, 'UNSPECIFIED' ) ;
#68 = CALENDAR_DATE ( 2018, 12, 3 ) ;
#70 = CARTESIAN_POINT ( 'NONE',  ( 4.750000000000000000, -6.250000000000007100, 12.49999999999999600 ) ) ;
#71 = CARTESIAN_POINT ( 'NONE',  ( 4.750000000000000000, -6.250000000000007100, -12.49999999999999600 ) ) ;
#72 = ORIENTED_EDGE ( 'NONE', *, *, #40, .T. ) ;
#73 = AXIS2_PLACEMENT_3D ( 'NONE', #226, #58, #41 ) ;
#74 = DIRECTION ( 'NONE',  ( 0.0000000000000000000, 0.0000000000000000000, -1.000000000000000000 ) ) ;
#75 = SECURITY_CLASSIFICATION_LEVEL ( 'unclassified' ) ;
#76 = VERTEX_POINT ( 'NONE', #164 ) ;
#77 = PERSON_AND_ORGANIZATION_ROLE ( 'creator' ) ;
#78 = LINE ( 'NONE', #83, #215 ) ;
#79 = LINE ( 'NONE', #134, #231 ) ;
#80 = AXIS2_PLACEMENT_3D ( 'NONE', #196, #106, #178 ) ;
#81 = PERSON_AND_ORGANIZATION ( #128, #117 ) ;
#82 = ORIENTED_EDGE ( 'NONE', *, *, #8, .T. ) ;
#83 = CARTESIAN_POINT ( 'NONE',  ( -4.750000000000000000, 6.249999999999996400, 12.49999999999999800 ) ) ;
#84 = CALENDAR_DATE ( 2018, 12, 3 ) ;
#85 = VECTOR ( 'NONE', #209, 1000.000000000000000 ) ;
#86 = ORIENTED_EDGE ( 'NONE', *, *, #1, .T. ) ;
#87 = DIRECTION ( 'NONE',  ( -0.0000000000000000000, -5.551115123125782700E-016, 1.000000000000000000 ) ) ;
#88 =( NAMED_UNIT ( * ) SI_UNIT ( $, .STERADIAN. ) SOLID_ANGLE_UNIT ( ) );
#89 = LOCAL_TIME ( 15, 17, 4.000000000000000000, #44 ) ;
#90 = DIRECTION ( 'NONE',  ( 0.0000000000000000000, 1.387778780781445200E-016, -1.000000000000000000 ) ) ;
#91 = CARTESIAN_POINT ( 'NONE',  ( 4.750000000000000000, -6.250000000000007100, -12.49999999999999600 ) ) ;
#92 = LOCAL_TIME ( 15, 17, 4.000000000000000000, #12 ) ;
#93 = APPROVAL_PERSON_ORGANIZATION ( #142, #100, #167 ) ;
#94 = VERTEX_POINT ( 'NONE', #141 ) ;
#95 = PRODUCT ( 'Web Model 43215_43221', 'Web Model 43215_43221', '', ( #224 ) ) ;
#96 = COORDINATED_UNIVERSAL_TIME_OFFSET ( 5, 0, .BEHIND. ) ;
#97 = VERTEX_POINT ( 'NONE', #105 ) ;
#98 = DATE_AND_TIME ( #84, #92 ) ;
#99 = MANIFOLD_SOLID_BREP ( 'Boss-Extrude1', #131 ) ;
#100 = APPROVAL ( #55, 'UNSPECIFIED' ) ;
#101 = ADVANCED_FACE ( 'NONE', ( #61 ), #163, .F. ) ;
#102 = DATE_AND_TIME ( #121, #42 ) ;
#103 = PLANE ( 'NONE',  #73 ) ;
#104 = CC_DESIGN_PERSON_AND_ORGANIZATION_ASSIGNMENT ( #156, #77, ( #52 ) ) ;
#105 = CARTESIAN_POINT ( 'NONE',  ( 4.750000000000000000, -6.250000000000007100, 12.49999999999999600 ) ) ;
#106 = DIRECTION ( 'NONE',  ( -1.000000000000000000, 0.0000000000000000000, 0.0000000000000000000 ) ) ;
#107 = EDGE_CURVE ( 'NONE', #211, #76, #26, .T. ) ;
#108 = EDGE_LOOP ( 'NONE', ( #185, #2, #56, #143 ) ) ;
#109 = APPLICATION_CONTEXT ( 'configuration controlled 3d designs of mechanical parts and assemblies' ) ;
#110 = DIRECTION ( 'NONE',  ( -0.0000000000000000000, 1.000000000000000000, 0.0000000000000000000 ) ) ;
#111 = AXIS2_PLACEMENT_3D ( 'NONE', #207, #149, #170 ) ;
#112 = APPROVAL_ROLE ( '' ) ;
#113 = FACE_OUTER_BOUND ( 'NONE', #180, .T. ) ;
#114 = ORIENTED_EDGE ( 'NONE', *, *, #17, .T. ) ;
#115 = LINE ( 'NONE', #39, #203 ) ;
#116 = EDGE_CURVE ( 'NONE', #211, #94, #165, .T. ) ;
#117 = ORGANIZATION ( 'UNSPECIFIED', 'UNSPECIFIED', '' ) ;
#118 = VERTEX_POINT ( 'NONE', #221 ) ;
#119 = CARTESIAN_POINT ( 'NONE',  ( -4.750000000000000000, -6.250000000000007100, 12.49999999999999600 ) ) ;
#120 = PERSON_AND_ORGANIZATION ( #128, #117 ) ;
#121 = CALENDAR_DATE ( 2018, 12, 3 ) ;
#122 = ORIENTED_EDGE ( 'NONE', *, *, #188, .F. ) ;
#123 = APPROVAL_STATUS ( 'not_yet_approved' ) ;
#124 = CARTESIAN_POINT ( 'NONE',  ( 4.750000000000000000, -6.250000000000007100, 12.49999999999999600 ) ) ;
#125 = APPLICATION_CONTEXT ( 'configuration controlled 3d designs of mechanical parts and assemblies' ) ;
#126 = VERTEX_POINT ( 'NONE', #181 ) ;
#127 = PLANE ( 'NONE',  #6 ) ;
#128 = PERSON ( 'UNSPECIFIED', 'UNSPECIFIED', 'UNSPECIFIED', ('UNSPECIFIED'), ('UNSPECIFIED'), ('UNSPECIFIED') ) ;
#129 = PLANE ( 'NONE',  #175 ) ;
#130 = AXIS2_PLACEMENT_3D ( 'NONE', #34, #161, #179 ) ;
#131 = CLOSED_SHELL ( 'NONE', ( #140, #230, #217, #101, #13, #155 ) ) ;
#132 = PERSON_AND_ORGANIZATION ( #128, #117 ) ;
#133 = ORIENTED_EDGE ( 'NONE', *, *, #116, .F. ) ;
#134 = CARTESIAN_POINT ( 'NONE',  ( 4.750000000000000000, -6.250000000000007100, 12.49999999999999600 ) ) ;
#135 = DATE_AND_TIME ( #189, #235 ) ;
#136 = EDGE_LOOP ( 'NONE', ( #38, #192, #43, #86 ) ) ;
#137 = SECURITY_CLASSIFICATION ( '', '', #75 ) ;
#138 = ORIENTED_EDGE ( 'NONE', *, *, #107, .T. ) ;
#139 = CARTESIAN_POINT ( 'NONE',  ( 4.750000000000000000, 6.250000000000010700, -12.50000000000000200 ) ) ;
#140 = ADVANCED_FACE ( 'NONE', ( #35 ), #129, .F. ) ;
#141 = CARTESIAN_POINT ( 'NONE',  ( 4.750000000000000000, 6.250000000000010700, -12.50000000000000200 ) ) ;
#142 = PERSON_AND_ORGANIZATION ( #128, #117 ) ;
#143 = ORIENTED_EDGE ( 'NONE', *, *, #27, .T. ) ;
#144 = CARTESIAN_POINT ( 'NONE',  ( 4.750000000000000000, -6.250000000000007100, 12.49999999999999600 ) ) ;
#145 =( NAMED_UNIT ( * ) PLANE_ANGLE_UNIT ( ) SI_UNIT ( $, .RADIAN. ) );
#146 = PERSON_AND_ORGANIZATION ( #128, #117 ) ;
#147 = APPLICATION_PROTOCOL_DEFINITION ( 'international standard', 'config_control_design', 1994, #109 ) ;
#148 = VECTOR ( 'NONE', #20, 1000.000000000000000 ) ;
#149 = DIRECTION ( 'NONE',  ( -0.0000000000000000000, 4.163336342344331100E-016, 1.000000000000000000 ) ) ;
#150 = DIRECTION ( 'NONE',  ( 0.0000000000000000000, 0.0000000000000000000, 1.000000000000000000 ) ) ;
#151 = PERSON_AND_ORGANIZATION_ROLE ( 'design_owner' ) ;
#152 = APPROVAL_DATE_TIME ( #135, #100 ) ;
#153 = VECTOR ( 'NONE', #18, 1000.000000000000000 ) ;
#154 = ORIENTED_EDGE ( 'NONE', *, *, #33, .F. ) ;
#155 = ADVANCED_FACE ( 'NONE', ( #162 ), #103, .T. ) ;
#156 = PERSON_AND_ORGANIZATION ( #128, #117 ) ;
#157 = CARTESIAN_POINT ( 'NONE',  ( -4.750000000000000000, 6.249999999999996400, 12.49999999999999800 ) ) ;
#158 = LINE ( 'NONE', #119, #153 ) ;
#159 = EDGE_LOOP ( 'NONE', ( #72, #82, #36, #114 ) ) ;
#160 = DIRECTION ( 'NONE',  ( -1.000000000000000000, -0.0000000000000000000, -0.0000000000000000000 ) ) ;
#161 = DIRECTION ( 'NONE',  ( 0.0000000000000000000, -1.000000000000000000, -5.551115123125782700E-016 ) ) ;
#162 = FACE_OUTER_BOUND ( 'NONE', #67, .T. ) ;
#163 = PLANE ( 'NONE',  #130 ) ;
#164 = CARTESIAN_POINT ( 'NONE',  ( -4.750000000000000000, -6.250000000000007100, -12.49999999999999600 ) ) ;
#165 = LINE ( 'NONE', #71, #29 ) ;
#166 =( LENGTH_UNIT ( ) NAMED_UNIT ( * ) SI_UNIT ( .MILLI., .METRE. ) );
#167 = APPROVAL_ROLE ( '' ) ;
#168 = DIRECTION ( 'NONE',  ( 0.0000000000000000000, 1.000000000000000000, 1.387778780781445200E-016 ) ) ;
#169 = LOCAL_TIME ( 15, 17, 4.000000000000000000, #5 ) ;
#170 = DIRECTION ( 'NONE',  ( 0.0000000000000000000, -1.000000000000000000, 4.163336342344331100E-016 ) ) ;
#171 = PRODUCT_DEFINITION_SHAPE ( 'NONE', 'NONE',  #47 ) ;
#172 = DIRECTION ( 'NONE',  ( 0.0000000000000000000, 0.0000000000000000000, -1.000000000000000000 ) ) ;
#173 =( GEOMETRIC_REPRESENTATION_CONTEXT ( 3 ) GLOBAL_UNCERTAINTY_ASSIGNED_CONTEXT ( ( #21 ) ) GLOBAL_UNIT_ASSIGNED_CONTEXT ( ( #166, #145, #88 ) ) REPRESENTATION_CONTEXT ( 'NONE', 'WORKASPACE' ) );
#174 = ORIENTED_EDGE ( 'NONE', *, *, #198, .F. ) ;
#175 = AXIS2_PLACEMENT_3D ( 'NONE', #124, #90, #168 ) ;
#176 = PERSON_AND_ORGANIZATION ( #128, #117 ) ;
#177 = CC_DESIGN_APPROVAL ( #14, ( #137 ) ) ;
#178 = DIRECTION ( 'NONE',  ( 0.0000000000000000000, 0.0000000000000000000, 1.000000000000000000 ) ) ;
#179 = DIRECTION ( 'NONE',  ( 0.0000000000000000000, 5.551115123125782700E-016, -1.000000000000000000 ) ) ;
#180 = EDGE_LOOP ( 'NONE', ( #208, #10, #46, #236 ) ) ;
#181 = CARTESIAN_POINT ( 'NONE',  ( -4.750000000000000000, -6.250000000000007100, 12.49999999999999600 ) ) ;
#182 = CARTESIAN_POINT ( 'NONE',  ( -4.750000000000000000, -6.250000000000007100, -12.49999999999999600 ) ) ;
#183 = DESIGN_CONTEXT ( 'detailed design', #109, 'design' ) ;
#184 = DIRECTION ( 'NONE',  ( 1.000000000000000000, 0.0000000000000000000, 0.0000000000000000000 ) ) ;
#185 = ORIENTED_EDGE ( 'NONE', *, *, #33, .T. ) ;
#186 = DIRECTION ( 'NONE',  ( 0.0000000000000000000, -0.0000000000000000000, 1.000000000000000000 ) ) ;
#187 = PERSON_AND_ORGANIZATION_ROLE ( 'design_supplier' ) ;
#188 = EDGE_CURVE ( 'NONE', #76, #118, #199, .T. ) ;
#189 = CALENDAR_DATE ( 2018, 12, 3 ) ;
#190 = ORIENTED_EDGE ( 'NONE', *, *, #188, .T. ) ;
#191 = CC_DESIGN_APPROVAL ( #69, ( #47 ) ) ;
#192 = ORIENTED_EDGE ( 'NONE', *, *, #27, .F. ) ;
#193 = APPROVAL_PERSON_ORGANIZATION ( #176, #14, #112 ) ;
#194 = DATE_AND_TIME ( #68, #169 ) ;
#195 = ORIENTED_EDGE ( 'NONE', *, *, #1, .F. ) ;
#196 = CARTESIAN_POINT ( 'NONE',  ( 4.750000000000000000, 0.0000000000000000000, 0.0000000000000000000 ) ) ;
#197 = ADVANCED_BREP_SHAPE_REPRESENTATION ( 'Web Model 43215_43221', ( #99, #49 ), #173 ) ;
#198 = EDGE_CURVE ( 'NONE', #126, #76, #115, .T. ) ;
#199 = LINE ( 'NONE', #182, #85 ) ;
#200 = CC_DESIGN_SECURITY_CLASSIFICATION ( #137, ( #52 ) ) ;
#201 = CARTESIAN_POINT ( 'NONE',  ( 4.750000000000000000, 6.249999999999996400, 12.49999999999999800 ) ) ;
#202 = DATE_AND_TIME ( #213, #89 ) ;
#203 = VECTOR ( 'NONE', #74, 1000.000000000000000 ) ;
#204 = DIRECTION ( 'NONE',  ( -1.000000000000000000, -0.0000000000000000000, -0.0000000000000000000 ) ) ;
#205 = DIRECTION ( 'NONE',  ( -1.000000000000000000, -0.0000000000000000000, -0.0000000000000000000 ) ) ;
#206 = SHAPE_DEFINITION_REPRESENTATION ( #171, #197 ) ;
#207 = CARTESIAN_POINT ( 'NONE',  ( 4.750000000000000000, -6.250000000000007100, -12.49999999999999600 ) ) ;
#208 = ORIENTED_EDGE ( 'NONE', *, *, #198, .T. ) ;
#209 = DIRECTION ( 'NONE',  ( 0.0000000000000000000, 1.000000000000000000, -4.163336342344331100E-016 ) ) ;
#210 = FACE_OUTER_BOUND ( 'NONE', #32, .T. ) ;
#211 = VERTEX_POINT ( 'NONE', #91 ) ;
#212 = CC_DESIGN_APPROVAL ( #100, ( #52 ) ) ;
#213 = CALENDAR_DATE ( 2018, 12, 3 ) ;
#214 = VECTOR ( 'NONE', #205, 1000.000000000000000 ) ;
#215 = VECTOR ( 'NONE', #87, 1000.000000000000000 ) ;
#216 = LINE ( 'NONE', #201, #148 ) ;
#217 = ADVANCED_FACE ( 'NONE', ( #210 ), #225, .F. ) ;
#218 = PERSON_AND_ORGANIZATION ( #128, #117 ) ;
#219 = DIRECTION ( 'NONE',  ( -0.0000000000000000000, -1.000000000000000000, -1.387778780781445200E-016 ) ) ;
#220 = CARTESIAN_POINT ( 'NONE',  ( 4.750000000000000000, 6.249999999999996400, 12.49999999999999800 ) ) ;
#221 = CARTESIAN_POINT ( 'NONE',  ( -4.750000000000000000, 6.250000000000010700, -12.50000000000000200 ) ) ;
#222 = FACE_OUTER_BOUND ( 'NONE', #159, .T. ) ;
#223 = DIRECTION ( 'NONE',  ( 0.0000000000000000000, 1.000000000000000000, -4.163336342344331100E-016 ) ) ;
#224 = MECHANICAL_CONTEXT ( 'NONE', #125, 'mechanical' ) ;
#225 = PLANE ( 'NONE',  #111 ) ;
#226 = CARTESIAN_POINT ( 'NONE',  ( -4.750000000000000000, 0.0000000000000000000, 0.0000000000000000000 ) ) ;
#227 = APPROVAL_STATUS ( 'not_yet_approved' ) ;
#228 = LINE ( 'NONE', #144, #63 ) ;
#229 = VECTOR ( 'NONE', #160, 1000.000000000000000 ) ;
#230 = ADVANCED_FACE ( 'NONE', ( #113 ), #127, .F. ) ;
#231 = VECTOR ( 'NONE', #172, 1000.000000000000000 ) ;
#232 = LINE ( 'NONE', #30, #9 ) ;
#233 = ORIENTED_EDGE ( 'NONE', *, *, #28, .F. ) ;
#234 = APPROVAL_DATE_TIME ( #202, #14 ) ;
#235 = LOCAL_TIME ( 15, 17, 4.000000000000000000, #45 ) ;
#236 = ORIENTED_EDGE ( 'NONE', *, *, #54, .T. ) ;
#237 = CC_DESIGN_PERSON_AND_ORGANIZATION_ASSIGNMENT ( #132, #187, ( #52 ) ) ;
ENDSEC;
END-ISO-10303-21;
