ISO-10303-21;
HEADER;
FILE_DESCRIPTION (( 'STEP AP203' ),
    '1' );
FILE_NAME ('Web Model 45567_45567.step',
    '2020-10-21T18:30:30',
    ( '' ),
    ( '' ),
    'SwSTEP 2.0',
    'SolidWorks 2018',
    '' );
FILE_SCHEMA (( 'CONFIG_CONTROL_DESIGN' ));
ENDSEC;

DATA;
#1 = EDGE_CURVE ( 'NONE', #79, #20, #44, .T. ) ;
#2 = APPROVAL ( #112, 'UNSPECIFIED' ) ;
#3 = COORDINATED_UNIVERSAL_TIME_OFFSET ( 5, 0, .BEHIND. ) ;
#4 = EDGE_LOOP ( 'NONE', ( #130, #141, #78, #125 ) ) ;
#5 = PRODUCT_RELATED_PRODUCT_CATEGORY ( 'detail', '', ( #9 ) ) ;
#6 = ORIENTED_EDGE ( 'NONE', *, *, #128, .F. ) ;
#7 = AXIS2_PLACEMENT_3D ( 'NONE', #139, #69, #82 ) ;
#8 = CARTESIAN_POINT ( 'NONE',  ( -3.175000000000001155, 0.0000000000000000000, 0.5000000000000000000 ) ) ;
#9 = PRODUCT ( 'Web Model 45567_45567', 'Web Model 45567_45567', '', ( #148 ) ) ;
#10 = PERSON_AND_ORGANIZATION ( #28, #175 ) ;
#11 = CC_DESIGN_PERSON_AND_ORGANIZATION_ASSIGNMENT ( #117, #150, ( #50 ) ) ;
#12 = AXIS2_PLACEMENT_3D ( 'NONE', #48, #94, #134 ) ;
#13 = DIRECTION ( 'NONE',  ( -0.0000000000000000000, -0.0000000000000000000, -1.000000000000000000 ) ) ;
#14 = ORIENTED_EDGE ( 'NONE', *, *, #1, .F. ) ;
#15 = PERSON_AND_ORGANIZATION ( #28, #175 ) ;
#16 = DIRECTION ( 'NONE',  ( 0.0000000000000000000, 0.0000000000000000000, 1.000000000000000000 ) ) ;
#17 = DIRECTION ( 'NONE',  ( 1.000000000000000000, 0.0000000000000000000, -0.0000000000000000000 ) ) ;
#18 = CARTESIAN_POINT ( 'NONE',  ( 0.0000000000000000000, 0.0000000000000000000, 0.5000000000000000000 ) ) ;
#19 = PERSON_AND_ORGANIZATION ( #28, #175 ) ;
#20 = VERTEX_POINT ( 'NONE', #8 ) ;
#21 = APPROVAL_ROLE ( '' ) ;
#22 = EDGE_LOOP ( 'NONE', ( #29, #123 ) ) ;
#23 = CC_DESIGN_PERSON_AND_ORGANIZATION_ASSIGNMENT ( #10, #56, ( #62 ) ) ;
#24 = VECTOR ( 'NONE', #124, 1000.000000000000000 ) ;
#25 = EDGE_LOOP ( 'NONE', ( #86, #64 ) ) ;
#26 = AXIS2_PLACEMENT_3D ( 'NONE', #47, #166, #155 ) ;
#27 = COORDINATED_UNIVERSAL_TIME_OFFSET ( 5, 0, .BEHIND. ) ;
#28 = PERSON ( 'UNSPECIFIED', 'UNSPECIFIED', 'UNSPECIFIED', ('UNSPECIFIED'), ('UNSPECIFIED'), ('UNSPECIFIED') ) ;
#29 = ORIENTED_EDGE ( 'NONE', *, *, #35, .T. ) ;
#30 = PERSON_AND_ORGANIZATION_ROLE ( 'design_supplier' ) ;
#31 = LOCAL_TIME ( 14, 30, 30.00000000000000000, #131 ) ;
#32 = CARTESIAN_POINT ( 'NONE',  ( -3.175000000000001155, 0.0000000000000000000, 0.0000000000000000000 ) ) ;
#33 = CARTESIAN_POINT ( 'NONE',  ( 3.175000000000001155, 3.888253587292847561E-16, 0.0000000000000000000 ) ) ;
#34 = ADVANCED_FACE ( 'NONE', ( #46 ), #99, .T. ) ;
#35 = EDGE_CURVE ( 'NONE', #20, #79, #147, .T. ) ;
#36 = FACE_OUTER_BOUND ( 'NONE', #22, .T. ) ;
#37 = COORDINATED_UNIVERSAL_TIME_OFFSET ( 5, 0, .BEHIND. ) ;
#38 = CLOSED_SHELL ( 'NONE', ( #34, #143, #133, #129 ) ) ;
#39 = CARTESIAN_POINT ( 'NONE',  ( 0.0000000000000000000, 0.0000000000000000000, 0.0000000000000000000 ) ) ;
#40 = CALENDAR_DATE ( 2020, 21, 10 ) ;
#41 = APPROVAL_STATUS ( 'not_yet_approved' ) ;
#42 = APPROVAL ( #41, 'UNSPECIFIED' ) ;
#43 =( NAMED_UNIT ( * ) SI_UNIT ( $, .STERADIAN. ) SOLID_ANGLE_UNIT ( ) );
#44 = CIRCLE ( 'NONE', #12, 3.175000000000001155 ) ;
#45 = AXIS2_PLACEMENT_3D ( 'NONE', #60, #93, #121 ) ;
#46 = FACE_OUTER_BOUND ( 'NONE', #119, .T. ) ;
#47 = CARTESIAN_POINT ( 'NONE',  ( 0.0000000000000000000, 0.0000000000000000000, 0.5000000000000000000 ) ) ;
#48 = CARTESIAN_POINT ( 'NONE',  ( 0.0000000000000000000, 0.0000000000000000000, 0.5000000000000000000 ) ) ;
#49 = PRODUCT_DEFINITION_SHAPE ( 'NONE', 'NONE',  #62 ) ;
#50 = SECURITY_CLASSIFICATION ( '', '', #122 ) ;
#51 = EDGE_CURVE ( 'NONE', #126, #140, #71, .T. ) ;
#52 = CARTESIAN_POINT ( 'NONE',  ( 0.0000000000000000000, 0.0000000000000000000, 0.5000000000000000000 ) ) ;
#53 =( LENGTH_UNIT ( ) NAMED_UNIT ( * ) SI_UNIT ( .MILLI., .METRE. ) );
#54 = APPROVAL_PERSON_ORGANIZATION ( #19, #77, #21 ) ;
#55 = CALENDAR_DATE ( 2020, 21, 10 ) ;
#56 = PERSON_AND_ORGANIZATION_ROLE ( 'creator' ) ;
#57 = APPLICATION_PROTOCOL_DEFINITION ( 'international standard', 'config_control_design', 1994, #84 ) ;
#58 = LINE ( 'NONE', #154, #104 ) ;
#59 = DATE_AND_TIME ( #127, #111 ) ;
#60 = CARTESIAN_POINT ( 'NONE',  ( 0.0000000000000000000, 0.0000000000000000000, 0.5000000000000000000 ) ) ;
#61 = SHAPE_DEFINITION_REPRESENTATION ( #49, #168 ) ;
#62 = PRODUCT_DEFINITION ( 'UNKNOWN', '', #81, #151 ) ;
#63 = CYLINDRICAL_SURFACE ( 'NONE', #100, 3.175000000000001155 ) ;
#64 = ORIENTED_EDGE ( 'NONE', *, *, #51, .F. ) ;
#65 = CC_DESIGN_APPROVAL ( #2, ( #50 ) ) ;
#66 = AXIS2_PLACEMENT_3D ( 'NONE', #106, #16, #67 ) ;
#67 = DIRECTION ( 'NONE',  ( 1.000000000000000000, 0.0000000000000000000, 0.0000000000000000000 ) ) ;
#68 = APPLICATION_CONTEXT ( 'configuration controlled 3d designs of mechanical parts and assemblies' ) ;
#69 = DIRECTION ( 'NONE',  ( 0.0000000000000000000, 0.0000000000000000000, 1.000000000000000000 ) ) ;
#70 = AXIS2_PLACEMENT_3D ( 'NONE', #144, #165, #90 ) ;
#71 = CIRCLE ( 'NONE', #70, 3.175000000000001155 ) ;
#72 = CARTESIAN_POINT ( 'NONE',  ( 3.175000000000001155, 3.888253587292847561E-16, 0.5000000000000000000 ) ) ;
#73 = CC_DESIGN_PERSON_AND_ORGANIZATION_ASSIGNMENT ( #98, #107, ( #9 ) ) ;
#74 = CARTESIAN_POINT ( 'NONE',  ( -3.175000000000001155, 0.0000000000000000000, 0.5000000000000000000 ) ) ;
#75 = CC_DESIGN_APPROVAL ( #42, ( #81 ) ) ;
#76 = APPROVAL_DATE_TIME ( #102, #77 ) ;
#77 = APPROVAL ( #105, 'UNSPECIFIED' ) ;
#78 = ORIENTED_EDGE ( 'NONE', *, *, #128, .T. ) ;
#79 = VERTEX_POINT ( 'NONE', #72 ) ;
#80 = APPLICATION_PROTOCOL_DEFINITION ( 'international standard', 'config_control_design', 1994, #68 ) ;
#81 = PRODUCT_DEFINITION_FORMATION_WITH_SPECIFIED_SOURCE ( 'ANY', '', #9, .NOT_KNOWN. ) ;
#82 = DIRECTION ( 'NONE',  ( 1.000000000000000000, 0.0000000000000000000, 0.0000000000000000000 ) ) ;
#83 = PLANE ( 'NONE',  #87 ) ;
#84 = APPLICATION_CONTEXT ( 'configuration controlled 3d designs of mechanical parts and assemblies' ) ;
#85 = COORDINATED_UNIVERSAL_TIME_OFFSET ( 5, 0, .BEHIND. ) ;
#86 = ORIENTED_EDGE ( 'NONE', *, *, #142, .F. ) ;
#87 = AXIS2_PLACEMENT_3D ( 'NONE', #39, #160, #17 ) ;
#88 = CC_DESIGN_DATE_AND_TIME_ASSIGNMENT ( #59, #152, ( #50 ) ) ;
#89 = PERSON_AND_ORGANIZATION ( #28, #175 ) ;
#90 = DIRECTION ( 'NONE',  ( 1.000000000000000000, 0.0000000000000000000, 0.0000000000000000000 ) ) ;
#91 = PERSON_AND_ORGANIZATION ( #28, #175 ) ;
#92 = CC_DESIGN_SECURITY_CLASSIFICATION ( #50, ( #81 ) ) ;
#93 = DIRECTION ( 'NONE',  ( 0.0000000000000000000, 0.0000000000000000000, 1.000000000000000000 ) ) ;
#94 = DIRECTION ( 'NONE',  ( 0.0000000000000000000, 0.0000000000000000000, 1.000000000000000000 ) ) ;
#95 = APPROVAL_PERSON_ORGANIZATION ( #89, #2, #162 ) ;
#96 = CC_DESIGN_PERSON_AND_ORGANIZATION_ASSIGNMENT ( #91, #30, ( #81 ) ) ;
#97 = PERSON_AND_ORGANIZATION_ROLE ( 'creator' ) ;
#98 = PERSON_AND_ORGANIZATION ( #28, #175 ) ;
#99 = CYLINDRICAL_SURFACE ( 'NONE', #26, 3.175000000000001155 ) ;
#100 = AXIS2_PLACEMENT_3D ( 'NONE', #18, #13, #135 ) ;
#101 = CIRCLE ( 'NONE', #7, 3.175000000000001155 ) ;
#102 = DATE_AND_TIME ( #170, #136 ) ;
#103 = DIRECTION ( 'NONE',  ( -0.0000000000000000000, -0.0000000000000000000, -1.000000000000000000 ) ) ;
#104 = VECTOR ( 'NONE', #103, 1000.000000000000000 ) ;
#105 = APPROVAL_STATUS ( 'not_yet_approved' ) ;
#106 = CARTESIAN_POINT ( 'NONE',  ( 0.0000000000000000000, 0.0000000000000000000, 0.0000000000000000000 ) ) ;
#107 = PERSON_AND_ORGANIZATION_ROLE ( 'design_owner' ) ;
#108 = DATE_TIME_ROLE ( 'creation_date' ) ;
#109 = CALENDAR_DATE ( 2020, 21, 10 ) ;
#110 = FACE_OUTER_BOUND ( 'NONE', #25, .T. ) ;
#111 = LOCAL_TIME ( 14, 30, 30.00000000000000000, #27 ) ;
#112 = APPROVAL_STATUS ( 'not_yet_approved' ) ;
#113 = CC_DESIGN_PERSON_AND_ORGANIZATION_ASSIGNMENT ( #15, #97, ( #81 ) ) ;
#114 = APPROVAL_DATE_TIME ( #157, #42 ) ;
#115 = EDGE_CURVE ( 'NONE', #79, #126, #58, .T. ) ;
#116 = CC_DESIGN_APPROVAL ( #77, ( #62 ) ) ;
#117 = PERSON_AND_ORGANIZATION ( #28, #175 ) ;
#118 = ORIENTED_EDGE ( 'NONE', *, *, #115, .T. ) ;
#119 = EDGE_LOOP ( 'NONE', ( #14, #118, #153, #6 ) ) ;
#120 = APPROVAL_DATE_TIME ( #167, #2 ) ;
#121 = DIRECTION ( 'NONE',  ( 1.000000000000000000, 0.0000000000000000000, 0.0000000000000000000 ) ) ;
#122 = SECURITY_CLASSIFICATION_LEVEL ( 'unclassified' ) ;
#123 = ORIENTED_EDGE ( 'NONE', *, *, #1, .T. ) ;
#124 = DIRECTION ( 'NONE',  ( -0.0000000000000000000, -0.0000000000000000000, -1.000000000000000000 ) ) ;
#125 = ORIENTED_EDGE ( 'NONE', *, *, #142, .T. ) ;
#126 = VERTEX_POINT ( 'NONE', #33 ) ;
#127 = CALENDAR_DATE ( 2020, 21, 10 ) ;
#128 = EDGE_CURVE ( 'NONE', #20, #140, #132, .T. ) ;
#129 = ADVANCED_FACE ( 'NONE', ( #110 ), #83, .F. ) ;
#130 = ORIENTED_EDGE ( 'NONE', *, *, #115, .F. ) ;
#131 = COORDINATED_UNIVERSAL_TIME_OFFSET ( 5, 0, .BEHIND. ) ;
#132 = LINE ( 'NONE', #74, #24 ) ;
#133 = ADVANCED_FACE ( 'NONE', ( #36 ), #173, .T. ) ;
#134 = DIRECTION ( 'NONE',  ( 1.000000000000000000, 0.0000000000000000000, 0.0000000000000000000 ) ) ;
#135 = DIRECTION ( 'NONE',  ( -1.000000000000000000, 0.0000000000000000000, 0.0000000000000000000 ) ) ;
#136 = LOCAL_TIME ( 14, 30, 30.00000000000000000, #85 ) ;
#137 = DIRECTION ( 'NONE',  ( 0.0000000000000000000, 0.0000000000000000000, 1.000000000000000000 ) ) ;
#138 = DIRECTION ( 'NONE',  ( 1.000000000000000000, 0.0000000000000000000, -0.0000000000000000000 ) ) ;
#139 = CARTESIAN_POINT ( 'NONE',  ( 0.0000000000000000000, 0.0000000000000000000, 0.0000000000000000000 ) ) ;
#140 = VERTEX_POINT ( 'NONE', #32 ) ;
#141 = ORIENTED_EDGE ( 'NONE', *, *, #35, .F. ) ;
#142 = EDGE_CURVE ( 'NONE', #140, #126, #101, .T. ) ;
#143 = ADVANCED_FACE ( 'NONE', ( #161 ), #63, .T. ) ;
#144 = CARTESIAN_POINT ( 'NONE',  ( 0.0000000000000000000, 0.0000000000000000000, 0.0000000000000000000 ) ) ;
#145 = AXIS2_PLACEMENT_3D ( 'NONE', #52, #137, #138 ) ;
#146 = LOCAL_TIME ( 14, 30, 30.00000000000000000, #3 ) ;
#147 = CIRCLE ( 'NONE', #45, 3.175000000000001155 ) ;
#148 = MECHANICAL_CONTEXT ( 'NONE', #68, 'mechanical' ) ;
#149 = APPROVAL_PERSON_ORGANIZATION ( #164, #42, #159 ) ;
#150 = PERSON_AND_ORGANIZATION_ROLE ( 'classification_officer' ) ;
#151 = DESIGN_CONTEXT ( 'detailed design', #84, 'design' ) ;
#152 = DATE_TIME_ROLE ( 'classification_date' ) ;
#153 = ORIENTED_EDGE ( 'NONE', *, *, #51, .T. ) ;
#154 = CARTESIAN_POINT ( 'NONE',  ( 3.175000000000001155, 3.888253587292847561E-16, 0.5000000000000000000 ) ) ;
#155 = DIRECTION ( 'NONE',  ( -1.000000000000000000, 0.0000000000000000000, 0.0000000000000000000 ) ) ;
#156 = LOCAL_TIME ( 14, 30, 30.00000000000000000, #37 ) ;
#157 = DATE_AND_TIME ( #40, #146 ) ;
#158 = UNCERTAINTY_MEASURE_WITH_UNIT (LENGTH_MEASURE( 1.000000000000000082E-05 ), #53, 'distance_accuracy_value', 'NONE');
#159 = APPROVAL_ROLE ( '' ) ;
#160 = DIRECTION ( 'NONE',  ( 0.0000000000000000000, 0.0000000000000000000, 1.000000000000000000 ) ) ;
#161 = FACE_OUTER_BOUND ( 'NONE', #4, .T. ) ;
#162 = APPROVAL_ROLE ( '' ) ;
#163 = DATE_AND_TIME ( #109, #31 ) ;
#164 = PERSON_AND_ORGANIZATION ( #28, #175 ) ;
#165 = DIRECTION ( 'NONE',  ( 0.0000000000000000000, 0.0000000000000000000, 1.000000000000000000 ) ) ;
#166 = DIRECTION ( 'NONE',  ( -0.0000000000000000000, -0.0000000000000000000, -1.000000000000000000 ) ) ;
#167 = DATE_AND_TIME ( #55, #156 ) ;
#168 = ADVANCED_BREP_SHAPE_REPRESENTATION ( 'Web Model 45567_45567', ( #174, #66 ), #171 ) ;
#169 = CC_DESIGN_DATE_AND_TIME_ASSIGNMENT ( #163, #108, ( #62 ) ) ;
#170 = CALENDAR_DATE ( 2020, 21, 10 ) ;
#171 =( GEOMETRIC_REPRESENTATION_CONTEXT ( 3 ) GLOBAL_UNCERTAINTY_ASSIGNED_CONTEXT ( ( #158 ) ) GLOBAL_UNIT_ASSIGNED_CONTEXT ( ( #53, #172, #43 ) ) REPRESENTATION_CONTEXT ( 'NONE', 'WORKASPACE' ) );
#172 =( NAMED_UNIT ( * ) PLANE_ANGLE_UNIT ( ) SI_UNIT ( $, .RADIAN. ) );
#173 = PLANE ( 'NONE',  #145 ) ;
#174 = MANIFOLD_SOLID_BREP ( 'Boss-Extrude1', #38 ) ;
#175 = ORGANIZATION ( 'UNSPECIFIED', 'UNSPECIFIED', '' ) ;
ENDSEC;
END-ISO-10303-21;
