ISO-10303-21;
HEADER;
FILE_DESCRIPTION (( 'STEP AP203' ),
    '1' );
FILE_NAME ('24955-E0W.STEP',
    '2012-10-01T14:06:35',
    ( 'Admin' ),
    ( 'Thorlabs, Inc.' ),
    'SwSTEP 2.0',
    'SolidWorks 2011',
    '' );
FILE_SCHEMA (( 'CONFIG_CONTROL_DESIGN' ));
ENDSEC;

DATA;
#1 = EDGE_LOOP ( 'NONE', ( #33, #38, #40, #34 ) ) ;
#2 = ORIENTED_EDGE ( 'NONE', *, *, #6, .F. ) ;
#3 = EDGE_LOOP ( 'NONE', ( #14, #5, #4, #10 ) ) ;
#4 = ORIENTED_EDGE ( 'NONE', *, *, #51, .T. ) ;
#5 = ORIENTED_EDGE ( 'NONE', *, *, #45, .F. ) ;
#6 = EDGE_CURVE ( 'NONE', #13, #12, #89, .T. ) ;
#7 = ADVANCED_FACE ( 'NONE', ( #31 ), #87, .T. ) ;
#8 = CLOSED_SHELL ( 'NONE', ( #17, #63, #83, #78, #64, #43, #32, #36, #7 ) ) ;
#9 = ORIENTED_EDGE ( 'NONE', *, *, #81, .T. ) ;
#10 = ORIENTED_EDGE ( 'NONE', *, *, #6, .T. ) ;
#11 = ORIENTED_EDGE ( 'NONE', *, *, #39, .T. ) ;
#12 = VERTEX_POINT ( 'NONE', #117 ) ;
#13 = VERTEX_POINT ( 'NONE', #114 ) ;
#14 = ORIENTED_EDGE ( 'NONE', *, *, #19, .F. ) ;
#15 = ORIENTED_EDGE ( 'NONE', *, *, #19, .T. ) ;
#16 = ORIENTED_EDGE ( 'NONE', *, *, #25, .T. ) ;
#17 = ADVANCED_FACE ( 'NONE', ( #118 ), #107, .T. ) ;
#18 = ORIENTED_EDGE ( 'NONE', *, *, #23, .F. ) ;
#19 = EDGE_CURVE ( 'NONE', #27, #12, #219, .T. ) ;
#20 = VERTEX_POINT ( 'NONE', #111 ) ;
#21 =( NAMED_UNIT ( * ) PLANE_ANGLE_UNIT ( ) SI_UNIT ( $, .RADIAN. ) );
#22 = MANIFOLD_SOLID_BREP ( '24999-001-1-solid1', #8 ) ;
#23 = EDGE_CURVE ( 'NONE', #27, #20, #109, .T. ) ;
#24 = UNCERTAINTY_MEASURE_WITH_UNIT (LENGTH_MEASURE( 1.000000000000000100E-005 ), #162, 'distance_accuracy_value', 'NONE');
#25 = EDGE_CURVE ( 'NONE', #12, #13, #220, .T. ) ;
#26 = EDGE_LOOP ( 'NONE', ( #18, #15, #16, #53 ) ) ;
#27 = VERTEX_POINT ( 'NONE', #215 ) ;
#28 =( NAMED_UNIT ( * ) SI_UNIT ( $, .STERADIAN. ) SOLID_ANGLE_UNIT ( ) );
#29 = ADVANCED_BREP_SHAPE_REPRESENTATION ( '24955-E0W', ( #22, #226 ), #30 ) ;
#30 =( GEOMETRIC_REPRESENTATION_CONTEXT ( 3 ) GLOBAL_UNCERTAINTY_ASSIGNED_CONTEXT ( ( #24 ) ) GLOBAL_UNIT_ASSIGNED_CONTEXT ( ( #162, #21, #28 ) ) REPRESENTATION_CONTEXT ( 'NONE', 'WORKASPACE' ) );
#31 = FACE_OUTER_BOUND ( 'NONE', #3, .T. ) ;
#32 = ADVANCED_FACE ( 'NONE', ( #213 ), #110, .T. ) ;
#33 = ORIENTED_EDGE ( 'NONE', *, *, #72, .F. ) ;
#34 = ORIENTED_EDGE ( 'NONE', *, *, #39, .F. ) ;
#35 = EDGE_LOOP ( 'NONE', ( #37, #11, #9, #2 ) ) ;
#36 = ADVANCED_FACE ( 'NONE', ( #200 ), #199, .T. ) ;
#37 = ORIENTED_EDGE ( 'NONE', *, *, #55, .F. ) ;
#38 = ORIENTED_EDGE ( 'NONE', *, *, #46, .T. ) ;
#39 = EDGE_CURVE ( 'NONE', #61, #59, #193, .T. ) ;
#40 = ORIENTED_EDGE ( 'NONE', *, *, #54, .T. ) ;
#41 = ORIENTED_EDGE ( 'NONE', *, *, #50, .T. ) ;
#42 = EDGE_LOOP ( 'NONE', ( #44, #47 ) ) ;
#43 = ADVANCED_FACE ( 'NONE', ( #196 ), #112, .F. ) ;
#44 = ORIENTED_EDGE ( 'NONE', *, *, #75, .F. ) ;
#45 = EDGE_CURVE ( 'NONE', #20, #27, #159, .T. ) ;
#46 = EDGE_CURVE ( 'NONE', #76, #71, #157, .T. ) ;
#47 = ORIENTED_EDGE ( 'NONE', *, *, #46, .F. ) ;
#48 = ORIENTED_EDGE ( 'NONE', *, *, #50, .F. ) ;
#49 = EDGE_LOOP ( 'NONE', ( #65, #68, #41 ) ) ;
#50 = EDGE_CURVE ( 'NONE', #27, #62, #149, .T. ) ;
#51 = EDGE_CURVE ( 'NONE', #20, #13, #140, .T. ) ;
#52 = EDGE_LOOP ( 'NONE', ( #58, #56, #79, #80 ) ) ;
#53 = ORIENTED_EDGE ( 'NONE', *, *, #51, .F. ) ;
#54 = EDGE_CURVE ( 'NONE', #71, #59, #134, .T. ) ;
#55 = EDGE_CURVE ( 'NONE', #61, #13, #130, .T. ) ;
#56 = ORIENTED_EDGE ( 'NONE', *, *, #55, .T. ) ;
#57 = ORIENTED_EDGE ( 'NONE', *, *, #75, .T. ) ;
#58 = ORIENTED_EDGE ( 'NONE', *, *, #60, .T. ) ;
#59 = VERTEX_POINT ( 'NONE', #191 ) ;
#60 = EDGE_CURVE ( 'NONE', #59, #61, #146, .T. ) ;
#61 = VERTEX_POINT ( 'NONE', #106 ) ;
#62 = VERTEX_POINT ( 'NONE', #135 ) ;
#63 = ADVANCED_FACE ( 'NONE', ( #94 ), #128, .T. ) ;
#64 = ADVANCED_FACE ( 'NONE', ( #95 ), #141, .T. ) ;
#65 = ORIENTED_EDGE ( 'NONE', *, *, #66, .F. ) ;
#66 = EDGE_CURVE ( 'NONE', #20, #62, #136, .T. ) ;
#67 = ORIENTED_EDGE ( 'NONE', *, *, #66, .T. ) ;
#68 = ORIENTED_EDGE ( 'NONE', *, *, #45, .T. ) ;
#69 = ORIENTED_EDGE ( 'NONE', *, *, #72, .T. ) ;
#70 = ORIENTED_EDGE ( 'NONE', *, *, #23, .T. ) ;
#71 = VERTEX_POINT ( 'NONE', #124 ) ;
#72 = EDGE_CURVE ( 'NONE', #76, #61, #184, .T. ) ;
#73 = ORIENTED_EDGE ( 'NONE', *, *, #60, .F. ) ;
#74 = ORIENTED_EDGE ( 'NONE', *, *, #54, .F. ) ;
#75 = EDGE_CURVE ( 'NONE', #71, #76, #178, .T. ) ;
#76 = VERTEX_POINT ( 'NONE', #180 ) ;
#77 = EDGE_LOOP ( 'NONE', ( #70, #67, #48 ) ) ;
#78 = ADVANCED_FACE ( 'NONE', ( #179 ), #123, .T. ) ;
#79 = ORIENTED_EDGE ( 'NONE', *, *, #25, .F. ) ;
#80 = ORIENTED_EDGE ( 'NONE', *, *, #81, .F. ) ;
#81 = EDGE_CURVE ( 'NONE', #59, #12, #166, .T. ) ;
#82 = EDGE_LOOP ( 'NONE', ( #57, #69, #73, #74 ) ) ;
#83 = ADVANCED_FACE ( 'NONE', ( #189 ), #176, .T. ) ;
#84 = DIRECTION ( 'NONE',  ( 1.000000000000000000, 0.0000000000000000000, 0.0000000000000000000 ) ) ;
#85 = DIRECTION ( 'NONE',  ( 0.0000000000000000000, 0.0000000000000000000, -1.000000000000000000 ) ) ;
#86 = CARTESIAN_POINT ( 'NONE',  ( 0.0000000000000000000, 0.0000000000000000000, 0.3760639353888977100 ) ) ;
#87 = CONICAL_SURFACE ( 'NONE', #92, 12.70000000000000100, 0.7853981633974545000 ) ;
#88 = AXIS2_PLACEMENT_3D ( 'NONE', #91, #93, #84 ) ;
#89 = CIRCLE ( 'NONE', #88, 12.70000000000000100 ) ;
#90 = DIRECTION ( 'NONE',  ( -1.000000000000000000, 0.0000000000000000000, 0.0000000000000000000 ) ) ;
#91 = CARTESIAN_POINT ( 'NONE',  ( 0.0000000000000000000, 0.0000000000000000000, 0.3760639353888977100 ) ) ;
#92 = AXIS2_PLACEMENT_3D ( 'NONE', #86, #85, #90 ) ;
#93 = DIRECTION ( 'NONE',  ( -0.0000000000000000000, -0.0000000000000000000, 1.000000000000000000 ) ) ;
#94 = FACE_OUTER_BOUND ( 'NONE', #52, .T. ) ;
#95 = FACE_OUTER_BOUND ( 'NONE', #49, .T. ) ;
#96 = DIRECTION ( 'NONE',  ( 1.000000000000000000, 0.0000000000000000000, 0.0000000000000000000 ) ) ;
#97 = DIRECTION ( 'NONE',  ( -0.0000000000000000000, -0.0000000000000000000, 1.000000000000000000 ) ) ;
#98 = CARTESIAN_POINT ( 'NONE',  ( 0.0000000000000000000, 0.0000000000000000000, -1.363578643762689800 ) ) ;
#99 = AXIS2_PLACEMENT_3D ( 'NONE', #98, #97, #96 ) ;
#100 = AXIS2_PLACEMENT_3D ( 'NONE', #122, #101, #137 ) ;
#101 = DIRECTION ( 'NONE',  ( -0.0000000000000000000, -0.0000000000000000000, 1.000000000000000000 ) ) ;
#102 = AXIS2_PLACEMENT_3D ( 'NONE', #127, #126, #125 ) ;
#103 = DIRECTION ( 'NONE',  ( -0.0000000000000000000, -0.0000000000000000000, 1.000000000000000000 ) ) ;
#104 = VECTOR ( 'NONE', #103, 1000.000000000000000 ) ;
#105 = CARTESIAN_POINT ( 'NONE',  ( -12.69999999999999900, 1.555301434917138400E-015, 20.94080269199658100 ) ) ;
#106 = CARTESIAN_POINT ( 'NONE',  ( -12.69999999999999900, 1.555301434917138400E-015, -1.363578643762689800 ) ) ;
#107 = CONICAL_SURFACE ( 'NONE', #116, 12.70000000000000100, 0.7853981633974545000 ) ;
#108 = AXIS2_PLACEMENT_3D ( 'NONE', #205, #203, #202 ) ;
#109 = CIRCLE ( 'NONE', #115, 12.55857864376269000 ) ;
#110 = CONICAL_SURFACE ( 'NONE', #108, 12.55857864376268800, 0.7853981633974545000 ) ;
#111 = CARTESIAN_POINT ( 'NONE',  ( -12.55857864376271100, 1.537982313792431200E-015, 0.5174852916262073800 ) ) ;
#112 = PLANE ( 'NONE',  #197 ) ;
#113 = CARTESIAN_POINT ( 'NONE',  ( 0.0000000000000000000, 0.0000000000000000000, 0.3760639353888977100 ) ) ;
#114 = CARTESIAN_POINT ( 'NONE',  ( -12.70000000000000300, 1.555301434917138800E-015, 0.3760639353888977100 ) ) ;
#115 = AXIS2_PLACEMENT_3D ( 'NONE', #120, #211, #210 ) ;
#116 = AXIS2_PLACEMENT_3D ( 'NONE', #113, #119, #121 ) ;
#117 = CARTESIAN_POINT ( 'NONE',  ( 12.70000000000000100, 0.0000000000000000000, 0.3760639353888977100 ) ) ;
#118 = FACE_OUTER_BOUND ( 'NONE', #26, .T. ) ;
#119 = DIRECTION ( 'NONE',  ( 0.0000000000000000000, 0.0000000000000000000, -1.000000000000000000 ) ) ;
#120 = CARTESIAN_POINT ( 'NONE',  ( 0.0000000000000000000, 0.0000000000000000000, 0.5174852916262073800 ) ) ;
#121 = DIRECTION ( 'NONE',  ( -1.000000000000000000, 0.0000000000000000000, 0.0000000000000000000 ) ) ;
#122 = CARTESIAN_POINT ( 'NONE',  ( 0.0000000000000000000, 0.0000000000000000000, -79.00499901367807400 ) ) ;
#123 = TOROIDAL_SURFACE ( 'NONE', #190, -0.01260228376494775000, 80.51000000000000500 ) ;
#124 = CARTESIAN_POINT ( 'NONE',  ( 12.55857864376268800, 0.0000000000000000000, -1.504999999999999400 ) ) ;
#125 = DIRECTION ( 'NONE',  ( 1.000000000000000000, 0.0000000000000000000, 0.0000000000000000000 ) ) ;
#126 = DIRECTION ( 'NONE',  ( -0.0000000000000000000, -0.0000000000000000000, 1.000000000000000000 ) ) ;
#127 = CARTESIAN_POINT ( 'NONE',  ( 0.0000000000000000000, 0.0000000000000000000, 20.94080269199658100 ) ) ;
#128 = CYLINDRICAL_SURFACE ( 'NONE', #102, 12.69999999999999900 ) ;
#129 = CARTESIAN_POINT ( 'NONE',  ( 0.01260228376494775000, -1.543334647468991600E-018, -79.00499901367807400 ) ) ;
#130 = LINE ( 'NONE', #105, #104 ) ;
#131 = DIRECTION ( 'NONE',  ( 0.7071067811865519000, 0.0000000000000000000, 0.7071067811865431300 ) ) ;
#132 = VECTOR ( 'NONE', #131, 1000.000000000000000 ) ;
#133 = CARTESIAN_POINT ( 'NONE',  ( 12.55857864376268800, 0.0000000000000000000, -1.504999999999999400 ) ) ;
#134 = LINE ( 'NONE', #133, #132 ) ;
#135 = CARTESIAN_POINT ( 'NONE',  ( 0.0000000000000000000, 0.0000000000000000000, 1.504999999999999900 ) ) ;
#136 = CIRCLE ( 'NONE', #187, 80.51000000000000500 ) ;
#137 = DIRECTION ( 'NONE',  ( 1.000000000000000000, 0.0000000000000000000, 0.0000000000000000000 ) ) ;
#138 = DIRECTION ( 'NONE',  ( -0.7071067811865519000, 0.0000000000000000000, -0.7071067811865431300 ) ) ;
#139 = VECTOR ( 'NONE', #138, 1000.000000000000000 ) ;
#140 = LINE ( 'NONE', #145, #139 ) ;
#141 = TOROIDAL_SURFACE ( 'NONE', #100, -0.01260228376494775000, 80.51000000000000500 ) ;
#142 = DIRECTION ( 'NONE',  ( 0.0000000000000000000, 0.0000000000000000000, -1.000000000000000000 ) ) ;
#143 = DIRECTION ( 'NONE',  ( 0.0000000000000000000, -1.000000000000000000, 0.0000000000000000000 ) ) ;
#144 = AXIS2_PLACEMENT_3D ( 'NONE', #194, #143, #142 ) ;
#145 = CARTESIAN_POINT ( 'NONE',  ( -12.70000000000000100, 0.0000000000000000000, 0.3760639353888977100 ) ) ;
#146 = CIRCLE ( 'NONE', #99, 12.69999999999999900 ) ;
#147 = DIRECTION ( 'NONE',  ( 1.000000000000000000, 0.0000000000000000000, 0.0000000000000000000 ) ) ;
#148 = DIRECTION ( 'NONE',  ( -0.0000000000000000000, -0.0000000000000000000, 1.000000000000000000 ) ) ;
#149 = CIRCLE ( 'NONE', #144, 80.51000000000001900 ) ;
#150 = CARTESIAN_POINT ( 'NONE',  ( 0.0000000000000000000, 0.0000000000000000000, -1.504999999999999400 ) ) ;
#151 = DIRECTION ( 'NONE',  ( 1.000000000000000000, 0.0000000000000000000, 0.0000000000000000000 ) ) ;
#152 = DIRECTION ( 'NONE',  ( -0.0000000000000000000, -0.0000000000000000000, 1.000000000000000000 ) ) ;
#153 = CARTESIAN_POINT ( 'NONE',  ( 0.0000000000000000000, 0.0000000000000000000, 0.5174852916262073800 ) ) ;
#154 = AXIS2_PLACEMENT_3D ( 'NONE', #153, #152, #151 ) ;
#155 = DIRECTION ( 'NONE',  ( 1.000000000000000000, 0.0000000000000000000, 0.0000000000000000000 ) ) ;
#156 = DIRECTION ( 'NONE',  ( 0.0000000000000000000, -0.0000000000000000000, 1.000000000000000000 ) ) ;
#157 = CIRCLE ( 'NONE', #158, 12.55857864376268800 ) ;
#158 = AXIS2_PLACEMENT_3D ( 'NONE', #150, #148, #147 ) ;
#159 = CIRCLE ( 'NONE', #154, 12.55857864376269000 ) ;
#160 = DIRECTION ( 'NONE',  ( 1.000000000000000000, 0.0000000000000000000, 0.0000000000000000000 ) ) ;
#161 = DIRECTION ( 'NONE',  ( -0.0000000000000000000, -0.0000000000000000000, 1.000000000000000000 ) ) ;
#162 =( LENGTH_UNIT ( ) NAMED_UNIT ( * ) SI_UNIT ( .MILLI., .METRE. ) );
#163 = DIRECTION ( 'NONE',  ( 1.000000000000000000, 0.0000000000000000000, 0.0000000000000000000 ) ) ;
#164 = DIRECTION ( 'NONE',  ( -0.0000000000000000000, -0.0000000000000000000, 1.000000000000000000 ) ) ;
#165 = VECTOR ( 'NONE', #167, 1000.000000000000000 ) ;
#166 = LINE ( 'NONE', #168, #165 ) ;
#167 = DIRECTION ( 'NONE',  ( -0.0000000000000000000, -0.0000000000000000000, 1.000000000000000000 ) ) ;
#168 = CARTESIAN_POINT ( 'NONE',  ( 12.69999999999999900, 0.0000000000000000000, 20.94080269199658100 ) ) ;
#169 = AXIS2_PLACEMENT_3D ( 'NONE', #171, #164, #163 ) ;
#170 = DIRECTION ( 'NONE',  ( -0.0000000000000000000, -0.0000000000000000000, 1.000000000000000000 ) ) ;
#171 = CARTESIAN_POINT ( 'NONE',  ( 0.0000000000000000000, 0.0000000000000000000, -1.504999999999999400 ) ) ;
#172 = DIRECTION ( 'NONE',  ( 1.000000000000000000, 0.0000000000000000000, 0.0000000000000000000 ) ) ;
#173 = DIRECTION ( 'NONE',  ( -0.0000000000000000000, -0.0000000000000000000, 1.000000000000000000 ) ) ;
#174 = CARTESIAN_POINT ( 'NONE',  ( 0.0000000000000000000, 0.0000000000000000000, -1.504999999999999400 ) ) ;
#175 = AXIS2_PLACEMENT_3D ( 'NONE', #174, #173, #172 ) ;
#176 = CONICAL_SURFACE ( 'NONE', #169, 12.55857864376268800, 0.7853981633974545000 ) ;
#177 = DIRECTION ( 'NONE',  ( 1.000000000000000000, 0.0000000000000000000, 0.0000000000000000000 ) ) ;
#178 = CIRCLE ( 'NONE', #175, 12.55857864376268800 ) ;
#179 = FACE_OUTER_BOUND ( 'NONE', #77, .T. ) ;
#180 = CARTESIAN_POINT ( 'NONE',  ( -12.55857864376268800, 1.546641874354783400E-015, -1.504999999999999400 ) ) ;
#181 = CARTESIAN_POINT ( 'NONE',  ( 0.0000000000000000000, 0.0000000000000000000, -79.00499901367807400 ) ) ;
#182 = DIRECTION ( 'NONE',  ( -0.7071067811865519000, 8.659560562354987100E-017, 0.7071067811865431300 ) ) ;
#183 = VECTOR ( 'NONE', #182, 1000.000000000000000 ) ;
#184 = LINE ( 'NONE', #188, #183 ) ;
#185 = DIRECTION ( 'NONE',  ( -1.000000000000000000, 1.224646799147353500E-016, 0.0000000000000000000 ) ) ;
#186 = DIRECTION ( 'NONE',  ( 1.224646799147353200E-016, 1.000000000000000000, 0.0000000000000000000 ) ) ;
#187 = AXIS2_PLACEMENT_3D ( 'NONE', #129, #186, #185 ) ;
#188 = CARTESIAN_POINT ( 'NONE',  ( -12.55857864376268800, 1.537982313792428500E-015, -1.504999999999999400 ) ) ;
#189 = FACE_OUTER_BOUND ( 'NONE', #82, .T. ) ;
#190 = AXIS2_PLACEMENT_3D ( 'NONE', #181, #170, #177 ) ;
#191 = CARTESIAN_POINT ( 'NONE',  ( 12.69999999999999900, 0.0000000000000000000, -1.363578643762689800 ) ) ;
#192 = DIRECTION ( 'NONE',  ( 1.000000000000000000, 0.0000000000000000000, 0.0000000000000000000 ) ) ;
#193 = CIRCLE ( 'NONE', #198, 12.69999999999999900 ) ;
#194 = CARTESIAN_POINT ( 'NONE',  ( -0.01260228376494775000, 0.0000000000000000000, -79.00499901367807400 ) ) ;
#195 = CARTESIAN_POINT ( 'NONE',  ( 0.0000000000000000000, 0.0000000000000000000, -1.504999999999999900 ) ) ;
#196 = FACE_OUTER_BOUND ( 'NONE', #42, .T. ) ;
#197 = AXIS2_PLACEMENT_3D ( 'NONE', #195, #156, #155 ) ;
#198 = AXIS2_PLACEMENT_3D ( 'NONE', #201, #161, #160 ) ;
#199 = CYLINDRICAL_SURFACE ( 'NONE', #214, 12.69999999999999900 ) ;
#200 = FACE_OUTER_BOUND ( 'NONE', #35, .T. ) ;
#201 = CARTESIAN_POINT ( 'NONE',  ( 0.0000000000000000000, 0.0000000000000000000, -1.363578643762689800 ) ) ;
#202 = DIRECTION ( 'NONE',  ( 1.000000000000000000, 0.0000000000000000000, 0.0000000000000000000 ) ) ;
#203 = DIRECTION ( 'NONE',  ( -0.0000000000000000000, -0.0000000000000000000, 1.000000000000000000 ) ) ;
#204 = DIRECTION ( 'NONE',  ( -0.0000000000000000000, -0.0000000000000000000, 1.000000000000000000 ) ) ;
#205 = CARTESIAN_POINT ( 'NONE',  ( 0.0000000000000000000, 0.0000000000000000000, -1.504999999999999400 ) ) ;
#206 = DIRECTION ( 'NONE',  ( 1.000000000000000000, 0.0000000000000000000, 0.0000000000000000000 ) ) ;
#207 = DIRECTION ( 'NONE',  ( -0.0000000000000000000, -0.0000000000000000000, 1.000000000000000000 ) ) ;
#208 = CARTESIAN_POINT ( 'NONE',  ( 0.0000000000000000000, 0.0000000000000000000, 20.94080269199658100 ) ) ;
#209 = AXIS2_PLACEMENT_3D ( 'NONE', #212, #207, #206 ) ;
#210 = DIRECTION ( 'NONE',  ( 1.000000000000000000, 0.0000000000000000000, 0.0000000000000000000 ) ) ;
#211 = DIRECTION ( 'NONE',  ( -0.0000000000000000000, -0.0000000000000000000, 1.000000000000000000 ) ) ;
#212 = CARTESIAN_POINT ( 'NONE',  ( 0.0000000000000000000, 0.0000000000000000000, 0.3760639353888977100 ) ) ;
#213 = FACE_OUTER_BOUND ( 'NONE', #1, .T. ) ;
#214 = AXIS2_PLACEMENT_3D ( 'NONE', #208, #204, #192 ) ;
#215 = CARTESIAN_POINT ( 'NONE',  ( 12.55857864376271100, 0.0000000000000000000, 0.5174852916262073800 ) ) ;
#216 = DIRECTION ( 'NONE',  ( 0.7071067811865519000, 8.659560562354987100E-017, -0.7071067811865431300 ) ) ;
#217 = VECTOR ( 'NONE', #216, 1000.000000000000000 ) ;
#218 = CARTESIAN_POINT ( 'NONE',  ( 12.70000000000000100, 1.555301434917138600E-015, 0.3760639353888977100 ) ) ;
#219 = LINE ( 'NONE', #218, #217 ) ;
#220 = CIRCLE ( 'NONE', #209, 12.70000000000000100 ) ;
#221 = DIRECTION ( 'NONE',  ( 0.0000000000000000000, 0.0000000000000000000, 1.000000000000000000 ) ) ;
#222 = PERSON ( 'UNSPECIFIED', 'UNSPECIFIED', 'UNSPECIFIED', ('UNSPECIFIED'), ('UNSPECIFIED'), ('UNSPECIFIED') ) ;
#223 = PRODUCT ( '24955-E0W', '24955-E0W', '', ( #233 ) ) ;
#224 = DIRECTION ( 'NONE',  ( 1.000000000000000000, 0.0000000000000000000, 0.0000000000000000000 ) ) ;
#225 = CARTESIAN_POINT ( 'NONE',  ( 0.0000000000000000000, 0.0000000000000000000, 0.0000000000000000000 ) ) ;
#226 = AXIS2_PLACEMENT_3D ( 'NONE', #225, #221, #224 ) ;
#227 = APPLICATION_PROTOCOL_DEFINITION ( 'international standard', 'config_control_design', 1994, #228 ) ;
#228 = APPLICATION_CONTEXT ( 'configuration controlled 3d designs of mechanical parts and assemblies' ) ;
#229 = CC_DESIGN_PERSON_AND_ORGANIZATION_ASSIGNMENT ( #231, #230, ( #223 ) ) ;
#230 = PERSON_AND_ORGANIZATION_ROLE ( 'design_owner' ) ;
#231 = PERSON_AND_ORGANIZATION ( #222, #232 ) ;
#232 = ORGANIZATION ( 'UNSPECIFIED', 'UNSPECIFIED', '' ) ;
#233 = MECHANICAL_CONTEXT ( 'NONE', #235, 'mechanical' ) ;
#234 = APPLICATION_PROTOCOL_DEFINITION ( 'international standard', 'config_control_design', 1994, #235 ) ;
#235 = APPLICATION_CONTEXT ( 'configuration controlled 3d designs of mechanical parts and assemblies' ) ;
#236 = PERSON_AND_ORGANIZATION ( #222, #232 ) ;
#237 = CC_DESIGN_APPROVAL ( #251, ( #250 ) ) ;
#238 = APPROVAL_ROLE ( '' ) ;
#239 = APPROVAL_DATE_TIME ( #240, #251 ) ;
#240 = DATE_AND_TIME ( #241, #243 ) ;
#241 = CALENDAR_DATE ( 2012, 1, 10 ) ;
#242 = COORDINATED_UNIVERSAL_TIME_OFFSET ( 5, 0, .BEHIND. ) ;
#243 = LOCAL_TIME ( 10, 6, 35.00000000000000000, #242 ) ;
#244 = DESIGN_CONTEXT ( 'detailed design', #228, 'design' ) ;
#245 = CC_DESIGN_PERSON_AND_ORGANIZATION_ASSIGNMENT ( #247, #246, ( #250 ) ) ;
#246 = PERSON_AND_ORGANIZATION_ROLE ( 'creator' ) ;
#247 = PERSON_AND_ORGANIZATION ( #222, #232 ) ;
#248 = APPROVAL_STATUS ( 'not_yet_approved' ) ;
#249 = APPROVAL_PERSON_ORGANIZATION ( #236, #251, #238 ) ;
#250 = PRODUCT_DEFINITION ( 'UNKNOWN', '', #259, #244 ) ;
#251 = APPROVAL ( #248, 'UNSPECIFIED' ) ;
#252 = LOCAL_TIME ( 10, 6, 35.00000000000000000, #262 ) ;
#253 = APPROVAL_STATUS ( 'not_yet_approved' ) ;
#254 = PERSON_AND_ORGANIZATION ( #222, #232 ) ;
#255 = PERSON_AND_ORGANIZATION ( #222, #232 ) ;
#256 = CC_DESIGN_APPROVAL ( #292, ( #259 ) ) ;
#257 = APPROVAL_DATE_TIME ( #258, #292 ) ;
#258 = DATE_AND_TIME ( #287, #288 ) ;
#259 = PRODUCT_DEFINITION_FORMATION_WITH_SPECIFIED_SOURCE ( 'ANY', '', #223, .NOT_KNOWN. ) ;
#260 = CC_DESIGN_DATE_AND_TIME_ASSIGNMENT ( #274, #261, ( #250 ) ) ;
#261 = DATE_TIME_ROLE ( 'creation_date' ) ;
#262 = COORDINATED_UNIVERSAL_TIME_OFFSET ( 5, 0, .BEHIND. ) ;
#263 = SHAPE_DEFINITION_REPRESENTATION ( #264, #29 ) ;
#264 = PRODUCT_DEFINITION_SHAPE ( 'NONE', 'NONE',  #250 ) ;
#265 = PRODUCT_RELATED_PRODUCT_CATEGORY ( 'detail', '', ( #223 ) ) ;
#266 = CC_DESIGN_SECURITY_CLASSIFICATION ( #301, ( #259 ) ) ;
#267 = CC_DESIGN_APPROVAL ( #283, ( #301 ) ) ;
#268 = SECURITY_CLASSIFICATION_LEVEL ( 'unclassified' ) ;
#269 = CC_DESIGN_PERSON_AND_ORGANIZATION_ASSIGNMENT ( #271, #270, ( #259 ) ) ;
#270 = PERSON_AND_ORGANIZATION_ROLE ( 'design_supplier' ) ;
#271 = PERSON_AND_ORGANIZATION ( #222, #232 ) ;
#272 = CC_DESIGN_PERSON_AND_ORGANIZATION_ASSIGNMENT ( #255, #273, ( #259 ) ) ;
#273 = PERSON_AND_ORGANIZATION_ROLE ( 'creator' ) ;
#274 = DATE_AND_TIME ( #275, #252 ) ;
#275 = CALENDAR_DATE ( 2012, 1, 10 ) ;
#276 = APPROVAL_DATE_TIME ( #277, #283 ) ;
#277 = DATE_AND_TIME ( #278, #279 ) ;
#278 = CALENDAR_DATE ( 2012, 1, 10 ) ;
#279 = LOCAL_TIME ( 10, 6, 35.00000000000000000, #280 ) ;
#280 = COORDINATED_UNIVERSAL_TIME_OFFSET ( 5, 0, .BEHIND. ) ;
#281 = APPROVAL_PERSON_ORGANIZATION ( #285, #283, #282 ) ;
#282 = APPROVAL_ROLE ( '' ) ;
#283 = APPROVAL ( #284, 'UNSPECIFIED' ) ;
#284 = APPROVAL_STATUS ( 'not_yet_approved' ) ;
#285 = PERSON_AND_ORGANIZATION ( #222, #232 ) ;
#286 = CC_DESIGN_DATE_AND_TIME_ASSIGNMENT ( #294, #293, ( #301 ) ) ;
#287 = CALENDAR_DATE ( 2012, 1, 10 ) ;
#288 = LOCAL_TIME ( 10, 6, 35.00000000000000000, #289 ) ;
#289 = COORDINATED_UNIVERSAL_TIME_OFFSET ( 5, 0, .BEHIND. ) ;
#290 = APPROVAL_PERSON_ORGANIZATION ( #254, #292, #291 ) ;
#291 = APPROVAL_ROLE ( '' ) ;
#292 = APPROVAL ( #253, 'UNSPECIFIED' ) ;
#293 = DATE_TIME_ROLE ( 'classification_date' ) ;
#294 = DATE_AND_TIME ( #295, #296 ) ;
#295 = CALENDAR_DATE ( 2012, 1, 10 ) ;
#296 = LOCAL_TIME ( 10, 6, 35.00000000000000000, #297 ) ;
#297 = COORDINATED_UNIVERSAL_TIME_OFFSET ( 5, 0, .BEHIND. ) ;
#298 = CC_DESIGN_PERSON_AND_ORGANIZATION_ASSIGNMENT ( #300, #299, ( #301 ) ) ;
#299 = PERSON_AND_ORGANIZATION_ROLE ( 'classification_officer' ) ;
#300 = PERSON_AND_ORGANIZATION ( #222, #232 ) ;
#301 = SECURITY_CLASSIFICATION ( '', '', #268 ) ;
ENDSEC;
END-ISO-10303-21;
