ISO-10303-21;
HEADER;
FILE_DESCRIPTION (( 'STEP AP203' ),
    '1' );
FILE_NAME ('Web Model 66754.STEP',
    '2017-01-31T19:39:01',
    ( '' ),
    ( '' ),
    'SwSTEP 2.0',
    'SolidWorks 2016',
    '' );
FILE_SCHEMA (( 'CONFIG_CONTROL_DESIGN' ));
ENDSEC;

DATA;
#1 = CARTESIAN_POINT ( 'NONE',  ( 0.0000000000000000000, 2.951389070461460000, -5.308339292969079800E-005 ) ) ;
#2 = CARTESIAN_POINT ( 'NONE',  ( -3.614409178179109900E-016, -2.951389070461460000, -5.308339292969079800E-005 ) ) ;
#3 = LOCAL_TIME ( 14, 39, 1.000000000000000000, #56 ) ;
#4 = VERTEX_POINT ( 'NONE', #28 ) ;
#5 = DESIGN_CONTEXT ( 'detailed design', #151, 'design' ) ;
#6 = CARTESIAN_POINT ( 'NONE',  ( 6.250000000000000000, 6.250000000000000000, 0.001732850333418270000 ) ) ;
#7 = DIRECTION ( 'NONE',  ( 1.000000000000000000, 0.0000000000000000000, 0.0000000000000000000 ) ) ;
#8 = ADVANCED_BREP_SHAPE_REPRESENTATION ( 'Web Model 66754', ( #247, #184 ), #12 ) ;
#9 = CIRCLE ( 'NONE', #141, 6.250000000000000000 ) ;
#10 = CARTESIAN_POINT ( 'NONE',  ( -6.165757149475899900E-016, -5.034722790088319600, 0.0003850784814430780200 ) ) ;
#11 = CARTESIAN_POINT ( 'NONE',  ( 5.034722790088319600, -9.248635724213842400E-016, 0.0003850784814430780200 ) ) ;
#12 =( GEOMETRIC_REPRESENTATION_CONTEXT ( 3 ) GLOBAL_UNCERTAINTY_ASSIGNED_CONTEXT ( ( #90 ) ) GLOBAL_UNIT_ASSIGNED_CONTEXT ( ( #86, #43, #254 ) ) REPRESENTATION_CONTEXT ( 'NONE', 'WORKASPACE' ) );
#13 = CARTESIAN_POINT ( 'NONE',  ( 0.0000000000000000000, 0.8680555561152809600, 0.0000000000000000000 ) ) ;
#14 = CIRCLE ( 'NONE', #50, 6.250000000000000000 ) ;
#15 = CARTESIAN_POINT ( 'NONE',  ( 0.0000000000000000000, 6.250000000000000000, 0.001732850333418270000 ) ) ;
#16 = AXIS2_PLACEMENT_3D ( 'NONE', #304, #212, #235 ) ;
#17 = COORDINATED_UNIVERSAL_TIME_OFFSET ( 5, 0, .BEHIND. ) ;
#18 = APPROVAL_ROLE ( '' ) ;
#19 = EDGE_CURVE ( 'NONE', #154, #121, #14, .T. ) ;
#20 = AXIS2_PLACEMENT_3D ( 'NONE', #162, #278, #237 ) ;
#21 = PERSON_AND_ORGANIZATION ( #159, #207 ) ;
#22 = APPROVAL ( #152, 'UNSPECIFIED' ) ;
#23 = ORIENTED_EDGE ( 'NONE', *, *, #275, .T. ) ;
#24 = CARTESIAN_POINT ( 'NONE',  ( 0.0000000000000000000, 0.0000000000000000000, 0.0000000000000000000 ) ) ;
#25 = EDGE_CURVE ( 'NONE', #4, #93, #193, .T. ) ;
#26 = PERSON_AND_ORGANIZATION ( #159, #207 ) ;
#27 = CARTESIAN_POINT ( 'NONE',  ( -6.250000000000000000, 1.653582669167220900E-015, -3.000000000000000000 ) ) ;
#28 = CARTESIAN_POINT ( 'NONE',  ( -7.654042494670958600E-016, -6.250000000000000000, 0.001732850333418270000 ) ) ;
#29 = CARTESIAN_POINT ( 'NONE',  ( -5.034722790088319600, 5.034722790088319600, 0.0003850784814430780700 ) ) ;
#30 = LINE ( 'NONE', #155, #167 ) ;
#31 = CARTESIAN_POINT ( 'NONE',  ( -6.250000000000000000, 3.827021247335479800E-016, 0.001732850333418270000 ) ) ;
#32 = CARTESIAN_POINT ( 'NONE',  ( 0.8680555561152809600, -1.594592187417979900E-016, 0.0000000000000000000 ) ) ;
#33 = CYLINDRICAL_SURFACE ( 'NONE', #16, 6.250000000000000000 ) ;
#34 = CARTESIAN_POINT ( 'NONE',  ( 0.0000000000000000000, 0.8680555561152809600, 0.0000000000000000000 ) ) ;
#35 = AXIS2_PLACEMENT_3D ( 'NONE', #138, #160, #48 ) ;
#36 = CARTESIAN_POINT ( 'NONE',  ( 0.0000000000000000000, 0.0000000000000000000, 0.0000000000000000000 ) ) ;
#37 = CARTESIAN_POINT ( 'NONE',  ( 2.951389070461460000, 2.951389070461460000, -5.308339292969079800E-005 ) ) ;
#38 = EDGE_CURVE ( 'NONE', #121, #154, #125, .T. ) ;
#39 = CARTESIAN_POINT ( 'NONE',  ( -6.250000000000000000, 1.653582669167220900E-015, 0.001732850333418270000 ) ) ;
#40 = ORIENTED_EDGE ( 'NONE', *, *, #234, .T. ) ;
#41 = CARTESIAN_POINT ( 'NONE',  ( 0.8680555561152809600, -1.594592187417979900E-016, 0.0000000000000000000 ) ) ;
#42 = CARTESIAN_POINT ( 'NONE',  ( 0.0000000000000000000, 0.0000000000000000000, 0.0000000000000000000 ) ) ;
#43 =( NAMED_UNIT ( * ) PLANE_ANGLE_UNIT ( ) SI_UNIT ( $, .RADIAN. ) );
#44 = SECURITY_CLASSIFICATION_LEVEL ( 'unclassified' ) ;
#45 = EDGE_LOOP ( 'NONE', ( #230, #40, #182, #293 ) ) ;
#46 = CARTESIAN_POINT ( 'NONE',  ( 1.913510623667739900E-016, 0.0000000000000000000, -3.000000000000000000 ) ) ;
#47 = LOCAL_TIME ( 14, 39, 1.000000000000000000, #17 ) ;
#48 = DIRECTION ( 'NONE',  ( 1.000000000000000000, 0.0000000000000000000, 0.0000000000000000000 ) ) ;
#49 = COORDINATED_UNIVERSAL_TIME_OFFSET ( 5, 0, .BEHIND. ) ;
#50 = AXIS2_PLACEMENT_3D ( 'NONE', #46, #70, #188 ) ;
#51 = ORIENTED_EDGE ( 'NONE', *, *, #103, .T. ) ;
#52 = CARTESIAN_POINT ( 'NONE',  ( 0.0000000000000000000, 0.0000000000000000000, 0.0000000000000000000 ) ) ;
#53 = PRODUCT_RELATED_PRODUCT_CATEGORY ( 'detail', '', ( #65 ) ) ;
#54 = CARTESIAN_POINT ( 'NONE',  ( -0.8680555561152809600, 5.315307291393270300E-017, 0.0000000000000000000 ) ) ;
#55 = CARTESIAN_POINT ( 'NONE',  ( 0.0000000000000000000, 0.0000000000000000000, 0.0000000000000000000 ) ) ;
#56 = COORDINATED_UNIVERSAL_TIME_OFFSET ( 5, 0, .BEHIND. ) ;
#57 = EDGE_LOOP ( 'NONE', ( #163, #148, #51, #208, #263 ) ) ;
#58 = CARTESIAN_POINT ( 'NONE',  ( -1.063061458278650000E-016, -0.8680555561152809600, 0.0000000000000000000 ) ) ;
#59 = LOCAL_TIME ( 14, 39, 1.000000000000000000, #200 ) ;
#60 = CARTESIAN_POINT ( 'NONE',  ( -0.8680555561152809600, 0.8680555561152809600, 0.0000000000000000000 ) ) ;
#61 = CARTESIAN_POINT ( 'NONE',  ( 0.0000000000000000000, 5.034722790088319600, 0.0003850784814430780200 ) ) ;
#62 = CARTESIAN_POINT ( 'NONE',  ( 0.0000000000000000000, 0.0000000000000000000, 0.0000000000000000000 ) ) ;
#63 = DATE_AND_TIME ( #287, #156 ) ;
#64 = ORIENTED_EDGE ( 'NONE', *, *, #103, .F. ) ;
#65 = PRODUCT ( 'Web Model 66754', 'Web Model 66754', '', ( #250 ) ) ;
#66 = DATE_TIME_ROLE ( 'creation_date' ) ;
#67 = APPLICATION_CONTEXT ( 'configuration controlled 3d designs of mechanical parts and assemblies' ) ;
#68 = ORIENTED_EDGE ( 'NONE', *, *, #275, .F. ) ;
#69 = CARTESIAN_POINT ( 'NONE',  ( 0.0000000000000000000, 0.0000000000000000000, 0.0000000000000000000 ) ) ;
#70 = DIRECTION ( 'NONE',  ( 0.0000000000000000000, -0.0000000000000000000, 1.000000000000000000 ) ) ;
#71 = DIRECTION ( 'NONE',  ( 0.0000000000000000000, -0.0000000000000000000, 1.000000000000000000 ) ) ;
#72 = CC_DESIGN_SECURITY_CLASSIFICATION ( #256, ( #175 ) ) ;
#73 = ADVANCED_FACE ( 'NONE', ( #255 ), #137, .T. ) ;
#74 = CARTESIAN_POINT ( 'NONE',  ( -2.951389070461460000, 2.951389070461460000, -5.308339292969079800E-005 ) ) ;
#75 = PERSON_AND_ORGANIZATION ( #159, #207 ) ;
#76 = ORIENTED_EDGE ( 'NONE', *, *, #116, .T. ) ;
#77 = CARTESIAN_POINT ( 'NONE',  ( 0.0000000000000000000, 0.8680555561152809600, 0.0000000000000000000 ) ) ;
#78 = CARTESIAN_POINT ( 'NONE',  ( -2.951389070461460000, 1.807204589089550000E-016, -5.308339292969079800E-005 ) ) ;
#79 = CARTESIAN_POINT ( 'NONE',  ( 0.0000000000000000000, 6.250000000000000000, 0.001732850333418270000 ) ) ;
#80 = APPROVAL_PERSON_ORGANIZATION ( #236, #231, #18 ) ;
#81 = FACE_OUTER_BOUND ( 'NONE', #111, .T. ) ;
#82 = CARTESIAN_POINT ( 'NONE',  ( -6.250000000000000000, -6.250000000000000000, 0.001732850333418270000 ) ) ;
#83 = CARTESIAN_POINT ( 'NONE',  ( 0.0000000000000000000, 2.951389070461460000, -5.308339292969079800E-005 ) ) ;
#84 = CARTESIAN_POINT ( 'NONE',  ( -0.8680555561152809600, 5.315307291393270300E-017, 0.0000000000000000000 ) ) ;
#85 = DIRECTION ( 'NONE',  ( 1.000000000000000000, 0.0000000000000000000, 0.0000000000000000000 ) ) ;
#86 =( LENGTH_UNIT ( ) NAMED_UNIT ( * ) SI_UNIT ( .MILLI., .METRE. ) );
#87 = APPROVAL_DATE_TIME ( #222, #97 ) ;
#88 = EDGE_CURVE ( 'NONE', #131, #4, #291, .T. ) ;
#89 = APPROVAL_ROLE ( '' ) ;
#90 = UNCERTAINTY_MEASURE_WITH_UNIT (LENGTH_MEASURE( 1.000000000000000100E-005 ), #86, 'distance_accuracy_value', 'NONE');
#91 = CARTESIAN_POINT ( 'NONE',  ( 0.0000000000000000000, 5.034722790088319600, 0.0003850784814430780200 ) ) ;
#92 = CIRCLE ( 'NONE', #300, 6.250000000000000000 ) ;
#93 = VERTEX_POINT ( 'NONE', #302 ) ;
#94 = DIRECTION ( 'NONE',  ( 0.0000000000000000000, 0.0000000000000000000, 1.000000000000000000 ) ) ;
#95 = CALENDAR_DATE ( 2017, 31, 1 ) ;
#96 = LINE ( 'NONE', #186, #279 ) ;
#97 = APPROVAL ( #295, 'UNSPECIFIED' ) ;
#98 = CARTESIAN_POINT ( 'NONE',  ( 0.0000000000000000000, 0.0000000000000000000, 0.0000000000000000000 ) ) ;
#99 = CARTESIAN_POINT ( 'NONE',  ( -2.951389070461460000, -2.951389070461460000, -5.308339292969079800E-005 ) ) ;
#100 = CARTESIAN_POINT ( 'NONE',  ( -5.034722790088319600, 3.082878574737949900E-016, 0.0003850784814430780200 ) ) ;
#101 = CARTESIAN_POINT ( 'NONE',  ( 0.0000000000000000000, 6.250000000000000000, 0.001732850333418270000 ) ) ;
#102 = CARTESIAN_POINT ( 'NONE',  ( 0.0000000000000000000, 0.0000000000000000000, 0.0000000000000000000 ) ) ;
#103 = EDGE_CURVE ( 'NONE', #154, #93, #30, .T. ) ;
#104 = CARTESIAN_POINT ( 'NONE',  ( -2.951389070461460000, 1.807204589089550000E-016, -5.308339292969079800E-005 ) ) ;
#105 = CARTESIAN_POINT ( 'NONE',  ( -7.654042494670959600E-016, -6.250000000000000000, 0.001732850333418270000 ) ) ;
#106 = FACE_OUTER_BOUND ( 'NONE', #301, .T. ) ;
#107 = VERTEX_POINT ( 'NONE', #260 ) ;
#108 = CARTESIAN_POINT ( 'NONE',  ( 6.250000000000000000, -1.148106374200640000E-015, 0.001732850333418270000 ) ) ;
#109 = PERSON_AND_ORGANIZATION_ROLE ( 'classification_officer' ) ;
#110 = APPROVAL_DATE_TIME ( #129, #231 ) ;
#111 = EDGE_LOOP ( 'NONE', ( #240, #76, #259, #68, #64 ) ) ;
#112 = CC_DESIGN_PERSON_AND_ORGANIZATION_ASSIGNMENT ( #288, #252, ( #175 ) ) ;
#113 = ORIENTED_EDGE ( 'NONE', *, *, #38, .F. ) ;
#114 = CARTESIAN_POINT ( 'NONE',  ( 0.0000000000000000000, 0.0000000000000000000, 0.0000000000000000000 ) ) ;
#115 = CARTESIAN_POINT ( 'NONE',  ( -7.654042494670959600E-016, -6.250000000000000000, 0.001732850333418270000 ) ) ;
#116 = EDGE_CURVE ( 'NONE', #121, #214, #96, .T. ) ;
#117 = CARTESIAN_POINT ( 'NONE',  ( 0.0000000000000000000, 0.0000000000000000000, 0.0000000000000000000 ) ) ;
#118 = CARTESIAN_POINT ( 'NONE',  ( 5.034722790088319600, 5.034722790088319600, 0.0003850784814430780700 ) ) ;
#119 = PERSON_AND_ORGANIZATION ( #159, #207 ) ;
#120 = CARTESIAN_POINT ( 'NONE',  ( -3.614409178179109900E-016, -2.951389070461460000, -5.308339292969079800E-005 ) ) ;
#121 = VERTEX_POINT ( 'NONE', #27 ) ;
#122 = CARTESIAN_POINT ( 'NONE',  ( 6.250000000000000000, 6.250000000000000000, 0.001732850333418270000 ) ) ;
#123 = PRODUCT_DEFINITION ( 'UNKNOWN', '', #175, #5 ) ;
#124 = CARTESIAN_POINT ( 'NONE',  ( -6.250000000000000000, 6.250000000000000000, 0.001732850333418270000 ) ) ;
#125 = CIRCLE ( 'NONE', #206, 6.250000000000000000 ) ;
#126 = CARTESIAN_POINT ( 'NONE',  ( -12.95400000000000100, 0.0000000000000000000, -3.000000000000000000 ) ) ;
#127 = AXIS2_PLACEMENT_3D ( 'NONE', #135, #133, #213 ) ;
#128 = DIRECTION ( 'NONE',  ( 0.0000000000000000000, 0.0000000000000000000, -1.000000000000000000 ) ) ;
#129 = DATE_AND_TIME ( #284, #47 ) ;
#130 = CARTESIAN_POINT ( 'NONE',  ( 1.913510623667739900E-016, 0.0000000000000000000, 0.001732850333418270000 ) ) ;
#131 = VERTEX_POINT ( 'NONE', #24 ) ;
#132 = CC_DESIGN_DATE_AND_TIME_ASSIGNMENT ( #136, #66, ( #123 ) ) ;
#133 = DIRECTION ( 'NONE',  ( 0.0000000000000000000, 0.0000000000000000000, 1.000000000000000000 ) ) ;
#134 = EDGE_CURVE ( 'NONE', #214, #4, #232, .T. ) ;
#135 = CARTESIAN_POINT ( 'NONE',  ( 0.0000000000000000000, 8.881784197001250400E-016, -3.000000000000000000 ) ) ;
#136 = DATE_AND_TIME ( #205, #187 ) ;
#137 = CYLINDRICAL_SURFACE ( 'NONE', #127, 6.250000000000000000 ) ;
#138 = CARTESIAN_POINT ( 'NONE',  ( 1.913510623667739900E-016, 0.0000000000000000000, 0.001732850333418270000 ) ) ;
#139 = CC_DESIGN_PERSON_AND_ORGANIZATION_ASSIGNMENT ( #26, #229, ( #123 ) ) ;
#140 = CARTESIAN_POINT ( 'NONE',  ( 0.0000000000000000000, 5.034722790088319600, 0.0003850784814430780200 ) ) ;
#141 = AXIS2_PLACEMENT_3D ( 'NONE', #226, #285, #7 ) ;
#142 = CARTESIAN_POINT ( 'NONE',  ( -0.8680555561152809600, 0.8680555561152809600, 0.0000000000000000000 ) ) ;
#143 = CARTESIAN_POINT ( 'NONE',  ( -2.951389070461460000, 2.951389070461460000, -5.308339292969079800E-005 ) ) ;
#144 = CARTESIAN_POINT ( 'NONE',  ( 2.951389070461460000, -2.951389070461460000, -5.308339292969079800E-005 ) ) ;
#145 = CARTESIAN_POINT ( 'NONE',  ( 0.0000000000000000000, 5.034722790088319600, 0.0003850784814430780200 ) ) ;
#146 = CC_DESIGN_APPROVAL ( #22, ( #256 ) ) ;
#147 = CARTESIAN_POINT ( 'NONE',  ( 0.0000000000000000000, 6.250000000000000000, 0.001732850333418270000 ) ) ;
#148 = ORIENTED_EDGE ( 'NONE', *, *, #38, .T. ) ;
#149 = CARTESIAN_POINT ( 'NONE',  ( 0.0000000000000000000, 0.0000000000000000000, 0.0000000000000000000 ) ) ;
#150 = APPROVAL_ROLE ( '' ) ;
#151 = APPLICATION_CONTEXT ( 'configuration controlled 3d designs of mechanical parts and assemblies' ) ;
#152 = APPROVAL_STATUS ( 'not_yet_approved' ) ;
#153 =( BOUNDED_SURFACE ( )  B_SPLINE_SURFACE ( 3, 2, ( 
 ( #42, #266, #199, #224, #248, #62, #36, #249, #174 ),
 ( #197, #60, #84, #198, #220, #201, #41, #176, #244 ),
 ( #83, #143, #104, #223, #120, #144, #177, #37, #269 ),
 ( #145, #286, #170, #246, #10, #267, #11, #118, #61 ),
 ( #171, #124, #221, #82, #105, #290, #108, #122, #147 ) ),
 .UNSPECIFIED., .F., .T., .F. ) 
 B_SPLINE_SURFACE_WITH_KNOTS ( ( 4, 1, 4 ),
 ( 3, 2, 2, 2, 3 ),
 ( 0.0000000000000000000, 0.4166666309254979900, 1.000000000000000000 ),
 ( 0.0000000000000000000, 90.00000000000000000, 180.0000000000000000, 270.0000000000000000, 360.0000000000000000 ),
 .UNSPECIFIED. ) 
 GEOMETRIC_REPRESENTATION_ITEM ( )  RATIONAL_B_SPLINE_SURFACE ( (
 ( 1.000000000000000000, 0.7071067811865480200, 1.000000000000000000, 0.7071067811865480200, 1.000000000000000000, 0.7071067811865480200, 1.000000000000000000, 0.7071067811865480200, 1.000000000000000000),
 ( 1.000000000000000000, 0.7071067811865480200, 1.000000000000000000, 0.7071067811865480200, 1.000000000000000000, 0.7071067811865480200, 1.000000000000000000, 0.7071067811865480200, 1.000000000000000000),
 ( 1.000000000000000000, 0.7071067811865480200, 1.000000000000000000, 0.7071067811865480200, 1.000000000000000000, 0.7071067811865480200, 1.000000000000000000, 0.7071067811865480200, 1.000000000000000000),
 ( 1.000000000000000000, 0.7071067811865480200, 1.000000000000000000, 0.7071067811865480200, 1.000000000000000000, 0.7071067811865480200, 1.000000000000000000, 0.7071067811865480200, 1.000000000000000000),
 ( 1.000000000000000000, 0.7071067811865480200, 1.000000000000000000, 0.7071067811865480200, 1.000000000000000000, 0.7071067811865480200, 1.000000000000000000, 0.7071067811865480200, 1.000000000000000000) ) ) 
 REPRESENTATION_ITEM ( '' )  SURFACE ( )  );
#154 = VERTEX_POINT ( 'NONE', #277 ) ;
#155 = CARTESIAN_POINT ( 'NONE',  ( 6.250000000000000000, 8.881784197001250400E-016, -3.000000000000000000 ) ) ;
#156 = LOCAL_TIME ( 14, 39, 1.000000000000000000, #49 ) ;
#157 = CARTESIAN_POINT ( 'NONE',  ( -6.165757149475899900E-016, -5.034722790088319600, 0.0003850784814430780200 ) ) ;
#158 = CARTESIAN_POINT ( 'NONE',  ( -1.063061458278650000E-016, -0.8680555561152809600, 0.0000000000000000000 ) ) ;
#159 = PERSON ( 'UNSPECIFIED', 'UNSPECIFIED', 'UNSPECIFIED', ('UNSPECIFIED'), ('UNSPECIFIED'), ('UNSPECIFIED') ) ;
#160 = DIRECTION ( 'NONE',  ( 0.0000000000000000000, -0.0000000000000000000, 1.000000000000000000 ) ) ;
#161 = APPROVAL_PERSON_ORGANIZATION ( #75, #22, #150 ) ;
#162 = CARTESIAN_POINT ( 'NONE',  ( 1.913510623667739900E-016, 0.0000000000000000000, 0.001732850333418270000 ) ) ;
#163 = ORIENTED_EDGE ( 'NONE', *, *, #116, .F. ) ;
#164 = ADVANCED_FACE ( 'NONE', ( #81 ), #33, .T. ) ;
#165 = CARTESIAN_POINT ( 'NONE',  ( -5.034722790088319600, -5.034722790088319600, 0.0003850784814430780700 ) ) ;
#166 = CARTESIAN_POINT ( 'NONE',  ( 0.0000000000000000000, 0.0000000000000000000, 0.0000000000000000000 ) ) ;
#167 = VECTOR ( 'NONE', #94, 1000.000000000000000 ) ;
#168 = CARTESIAN_POINT ( 'NONE',  ( 5.034722790088319600, -5.034722790088319600, 0.0003850784814430780700 ) ) ;
#169 = CARTESIAN_POINT ( 'NONE',  ( 2.951389070461460000, 2.951389070461460000, -5.308339292969079800E-005 ) ) ;
#170 = CARTESIAN_POINT ( 'NONE',  ( -5.034722790088319600, 3.082878574737949900E-016, 0.0003850784814430780200 ) ) ;
#171 = CARTESIAN_POINT ( 'NONE',  ( 0.0000000000000000000, 6.250000000000000000, 0.001732850333418270000 ) ) ;
#172 = PERSON_AND_ORGANIZATION ( #159, #207 ) ;
#173 = ORIENTED_EDGE ( 'NONE', *, *, #88, .T. ) ;
#174 = CARTESIAN_POINT ( 'NONE',  ( 0.0000000000000000000, 0.0000000000000000000, 0.0000000000000000000 ) ) ;
#175 = PRODUCT_DEFINITION_FORMATION_WITH_SPECIFIED_SOURCE ( 'ANY', '', #65, .NOT_KNOWN. ) ;
#176 = CARTESIAN_POINT ( 'NONE',  ( 0.8680555561152809600, 0.8680555561152809600, 0.0000000000000000000 ) ) ;
#177 = CARTESIAN_POINT ( 'NONE',  ( 2.951389070461460000, -5.421613767268659900E-016, -5.308339292969079800E-005 ) ) ;
#178 = CARTESIAN_POINT ( 'NONE',  ( 0.0000000000000000000, 2.951389070461460000, -5.308339292969079800E-005 ) ) ;
#179 = PRODUCT_DEFINITION_SHAPE ( 'NONE', 'NONE',  #123 ) ;
#180 = CC_DESIGN_PERSON_AND_ORGANIZATION_ASSIGNMENT ( #119, #228, ( #65 ) ) ;
#181 = APPROVAL_STATUS ( 'not_yet_approved' ) ;
#182 = ORIENTED_EDGE ( 'NONE', *, *, #225, .T. ) ;
#183 = PERSON_AND_ORGANIZATION_ROLE ( 'design_supplier' ) ;
#184 = AXIS2_PLACEMENT_3D ( 'NONE', #69, #251, #85 ) ;
#185 = CARTESIAN_POINT ( 'NONE',  ( -7.654042494670958600E-016, -6.250000000000000000, 0.001732850333418270000 ) ) ;
#186 = CARTESIAN_POINT ( 'NONE',  ( -6.250000000000000000, 1.653582669167220900E-015, -3.000000000000000000 ) ) ;
#187 = LOCAL_TIME ( 14, 39, 1.000000000000000000, #265 ) ;
#188 = DIRECTION ( 'NONE',  ( 1.000000000000000000, 0.0000000000000000000, 0.0000000000000000000 ) ) ;
#189 = ADVANCED_FACE ( 'NONE', ( #106 ), #204, .T. ) ;
#190 = AXIS2_PLACEMENT_3D ( 'NONE', #126, #128, #292 ) ;
#191 = CARTESIAN_POINT ( 'NONE',  ( 0.0000000000000000000, 0.0000000000000000000, 0.0000000000000000000 ) ) ;
#192 = CARTESIAN_POINT ( 'NONE',  ( 2.951389070461460000, -5.421613767268659900E-016, -5.308339292969079800E-005 ) ) ;
#193 = CIRCLE ( 'NONE', #20, 6.250000000000000000 ) ;
#194 = CARTESIAN_POINT ( 'NONE',  ( 0.8680555561152809600, -0.8680555561152809600, 0.0000000000000000000 ) ) ;
#195 = CARTESIAN_POINT ( 'NONE',  ( 2.951389070461460000, -2.951389070461460000, -5.308339292969079800E-005 ) ) ;
#196 = CALENDAR_DATE ( 2017, 31, 1 ) ;
#197 = CARTESIAN_POINT ( 'NONE',  ( 0.0000000000000000000, 0.8680555561152809600, 0.0000000000000000000 ) ) ;
#198 = CARTESIAN_POINT ( 'NONE',  ( -0.8680555561152809600, -0.8680555561152809600, 0.0000000000000000000 ) ) ;
#199 = CARTESIAN_POINT ( 'NONE',  ( 0.0000000000000000000, 0.0000000000000000000, 0.0000000000000000000 ) ) ;
#200 = COORDINATED_UNIVERSAL_TIME_OFFSET ( 5, 0, .BEHIND. ) ;
#201 = CARTESIAN_POINT ( 'NONE',  ( 0.8680555561152809600, -0.8680555561152809600, 0.0000000000000000000 ) ) ;
#202 = CC_DESIGN_APPROVAL ( #231, ( #175 ) ) ;
#203 = B_SPLINE_CURVE_WITH_KNOTS ( 'NONE', 3,
 ( #149, #13, #178, #91, #15 ),
 .UNSPECIFIED., .F., .F.,
 ( 4, 1, 4 ),
 ( 0.0000000000000000000, 0.4166666309254979900, 1.000000000000000000 ),
 .UNSPECIFIED. ) ;
#204 =( BOUNDED_SURFACE ( )  B_SPLINE_SURFACE ( 3, 2, ( 
 ( #114, #55, #242, #117, #217, #191, #102, #166, #52 ),
 ( #77, #142, #54, #215, #58, #194, #32, #238, #34 ),
 ( #1, #74, #78, #99, #2, #195, #192, #169, #282 ),
 ( #140, #29, #100, #165, #241, #168, #281, #216, #243 ),
 ( #101, #239, #31, #264, #115, #219, #283, #6, #79 ) ),
 .UNSPECIFIED., .F., .T., .F. ) 
 B_SPLINE_SURFACE_WITH_KNOTS ( ( 4, 1, 4 ),
 ( 3, 2, 2, 2, 3 ),
 ( 0.0000000000000000000, 0.4166666309254979900, 1.000000000000000000 ),
 ( 0.0000000000000000000, 90.00000000000000000, 180.0000000000000000, 270.0000000000000000, 360.0000000000000000 ),
 .UNSPECIFIED. ) 
 GEOMETRIC_REPRESENTATION_ITEM ( )  RATIONAL_B_SPLINE_SURFACE ( (
 ( 1.000000000000000000, 0.7071067811865480200, 1.000000000000000000, 0.7071067811865480200, 1.000000000000000000, 0.7071067811865480200, 1.000000000000000000, 0.7071067811865480200, 1.000000000000000000),
 ( 1.000000000000000000, 0.7071067811865480200, 1.000000000000000000, 0.7071067811865480200, 1.000000000000000000, 0.7071067811865480200, 1.000000000000000000, 0.7071067811865480200, 1.000000000000000000),
 ( 1.000000000000000000, 0.7071067811865480200, 1.000000000000000000, 0.7071067811865480200, 1.000000000000000000, 0.7071067811865480200, 1.000000000000000000, 0.7071067811865480200, 1.000000000000000000),
 ( 1.000000000000000000, 0.7071067811865480200, 1.000000000000000000, 0.7071067811865480200, 1.000000000000000000, 0.7071067811865480200, 1.000000000000000000, 0.7071067811865480200, 1.000000000000000000),
 ( 1.000000000000000000, 0.7071067811865480200, 1.000000000000000000, 0.7071067811865480200, 1.000000000000000000, 0.7071067811865480200, 1.000000000000000000, 0.7071067811865480200, 1.000000000000000000) ) ) 
 REPRESENTATION_ITEM ( '' )  SURFACE ( )  );
#205 = CALENDAR_DATE ( 2017, 31, 1 ) ;
#206 = AXIS2_PLACEMENT_3D ( 'NONE', #261, #71, #233 ) ;
#207 = ORGANIZATION ( 'UNSPECIFIED', 'UNSPECIFIED', '' ) ;
#208 = ORIENTED_EDGE ( 'NONE', *, *, #25, .F. ) ;
#209 = CC_DESIGN_PERSON_AND_ORGANIZATION_ASSIGNMENT ( #297, #183, ( #175 ) ) ;
#210 = DATE_AND_TIME ( #95, #3 ) ;
#211 = ADVANCED_FACE ( 'NONE', ( #274 ), #153, .T. ) ;
#212 = DIRECTION ( 'NONE',  ( 0.0000000000000000000, 0.0000000000000000000, 1.000000000000000000 ) ) ;
#213 = DIRECTION ( 'NONE',  ( 1.000000000000000000, 0.0000000000000000000, 0.0000000000000000000 ) ) ;
#214 = VERTEX_POINT ( 'NONE', #39 ) ;
#215 = CARTESIAN_POINT ( 'NONE',  ( -0.8680555561152809600, -0.8680555561152809600, 0.0000000000000000000 ) ) ;
#216 = CARTESIAN_POINT ( 'NONE',  ( 5.034722790088319600, 5.034722790088319600, 0.0003850784814430780700 ) ) ;
#217 = CARTESIAN_POINT ( 'NONE',  ( 0.0000000000000000000, 0.0000000000000000000, 0.0000000000000000000 ) ) ;
#218 = SHAPE_DEFINITION_REPRESENTATION ( #179, #8 ) ;
#219 = CARTESIAN_POINT ( 'NONE',  ( 6.250000000000000000, -6.250000000000000000, 0.001732850333418270000 ) ) ;
#220 = CARTESIAN_POINT ( 'NONE',  ( -1.063061458278650000E-016, -0.8680555561152809600, 0.0000000000000000000 ) ) ;
#221 = CARTESIAN_POINT ( 'NONE',  ( -6.250000000000000000, 3.827021247335479800E-016, 0.001732850333418270000 ) ) ;
#222 = DATE_AND_TIME ( #196, #59 ) ;
#223 = CARTESIAN_POINT ( 'NONE',  ( -2.951389070461460000, -2.951389070461460000, -5.308339292969079800E-005 ) ) ;
#224 = CARTESIAN_POINT ( 'NONE',  ( 0.0000000000000000000, 0.0000000000000000000, 0.0000000000000000000 ) ) ;
#225 = EDGE_CURVE ( 'NONE', #107, #214, #9, .T. ) ;
#226 = CARTESIAN_POINT ( 'NONE',  ( 1.913510623667739900E-016, 0.0000000000000000000, 0.001732850333418270000 ) ) ;
#227 = CC_DESIGN_APPROVAL ( #97, ( #123 ) ) ;
#228 = PERSON_AND_ORGANIZATION_ROLE ( 'design_owner' ) ;
#229 = PERSON_AND_ORGANIZATION_ROLE ( 'creator' ) ;
#230 = ORIENTED_EDGE ( 'NONE', *, *, #88, .F. ) ;
#231 = APPROVAL ( #181, 'UNSPECIFIED' ) ;
#232 = CIRCLE ( 'NONE', #35, 6.250000000000000000 ) ;
#233 = DIRECTION ( 'NONE',  ( 1.000000000000000000, 0.0000000000000000000, 0.0000000000000000000 ) ) ;
#234 = EDGE_CURVE ( 'NONE', #131, #107, #203, .T. ) ;
#235 = DIRECTION ( 'NONE',  ( 1.000000000000000000, 0.0000000000000000000, 0.0000000000000000000 ) ) ;
#236 = PERSON_AND_ORGANIZATION ( #159, #207 ) ;
#237 = DIRECTION ( 'NONE',  ( 1.000000000000000000, 0.0000000000000000000, 0.0000000000000000000 ) ) ;
#238 = CARTESIAN_POINT ( 'NONE',  ( 0.8680555561152809600, 0.8680555561152809600, 0.0000000000000000000 ) ) ;
#239 = CARTESIAN_POINT ( 'NONE',  ( -6.250000000000000000, 6.250000000000000000, 0.001732850333418270000 ) ) ;
#240 = ORIENTED_EDGE ( 'NONE', *, *, #19, .T. ) ;
#241 = CARTESIAN_POINT ( 'NONE',  ( -6.165757149475899900E-016, -5.034722790088319600, 0.0003850784814430780200 ) ) ;
#242 = CARTESIAN_POINT ( 'NONE',  ( 0.0000000000000000000, 0.0000000000000000000, 0.0000000000000000000 ) ) ;
#243 = CARTESIAN_POINT ( 'NONE',  ( 0.0000000000000000000, 5.034722790088319600, 0.0003850784814430780200 ) ) ;
#244 = CARTESIAN_POINT ( 'NONE',  ( 0.0000000000000000000, 0.8680555561152809600, 0.0000000000000000000 ) ) ;
#245 = FACE_OUTER_BOUND ( 'NONE', #276, .T. ) ;
#246 = CARTESIAN_POINT ( 'NONE',  ( -5.034722790088319600, -5.034722790088319600, 0.0003850784814430780700 ) ) ;
#247 = MANIFOLD_SOLID_BREP ( 'Imported1', #280 ) ;
#248 = CARTESIAN_POINT ( 'NONE',  ( 0.0000000000000000000, 0.0000000000000000000, 0.0000000000000000000 ) ) ;
#249 = CARTESIAN_POINT ( 'NONE',  ( 0.0000000000000000000, 0.0000000000000000000, 0.0000000000000000000 ) ) ;
#250 = MECHANICAL_CONTEXT ( 'NONE', #67, 'mechanical' ) ;
#251 = DIRECTION ( 'NONE',  ( 0.0000000000000000000, 0.0000000000000000000, 1.000000000000000000 ) ) ;
#252 = PERSON_AND_ORGANIZATION_ROLE ( 'creator' ) ;
#253 = APPLICATION_PROTOCOL_DEFINITION ( 'international standard', 'config_control_design', 1994, #151 ) ;
#254 =( NAMED_UNIT ( * ) SI_UNIT ( $, .STERADIAN. ) SOLID_ANGLE_UNIT ( ) );
#255 = FACE_OUTER_BOUND ( 'NONE', #57, .T. ) ;
#256 = SECURITY_CLASSIFICATION ( '', '', #44 ) ;
#257 = DIRECTION ( 'NONE',  ( 0.0000000000000000000, 0.0000000000000000000, 1.000000000000000000 ) ) ;
#258 = APPROVAL_DATE_TIME ( #210, #22 ) ;
#259 = ORIENTED_EDGE ( 'NONE', *, *, #225, .F. ) ;
#260 = CARTESIAN_POINT ( 'NONE',  ( 0.0000000000000000000, 6.250000000000000000, 0.001732850333418270000 ) ) ;
#261 = CARTESIAN_POINT ( 'NONE',  ( 1.913510623667739900E-016, 0.0000000000000000000, -3.000000000000000000 ) ) ;
#262 = CARTESIAN_POINT ( 'NONE',  ( -3.614409178179109900E-016, -2.951389070461460000, -5.308339292969079800E-005 ) ) ;
#263 = ORIENTED_EDGE ( 'NONE', *, *, #134, .F. ) ;
#264 = CARTESIAN_POINT ( 'NONE',  ( -6.250000000000000000, -6.250000000000000000, 0.001732850333418270000 ) ) ;
#265 = COORDINATED_UNIVERSAL_TIME_OFFSET ( 5, 0, .BEHIND. ) ;
#266 = CARTESIAN_POINT ( 'NONE',  ( 0.0000000000000000000, 0.0000000000000000000, 0.0000000000000000000 ) ) ;
#267 = CARTESIAN_POINT ( 'NONE',  ( 5.034722790088319600, -5.034722790088319600, 0.0003850784814430780700 ) ) ;
#268 = ORIENTED_EDGE ( 'NONE', *, *, #234, .F. ) ;
#269 = CARTESIAN_POINT ( 'NONE',  ( 0.0000000000000000000, 2.951389070461460000, -5.308339292969079800E-005 ) ) ;
#270 = DIRECTION ( 'NONE',  ( 1.000000000000000000, 0.0000000000000000000, 0.0000000000000000000 ) ) ;
#271 = DIRECTION ( 'NONE',  ( 0.0000000000000000000, -0.0000000000000000000, 1.000000000000000000 ) ) ;
#272 = APPROVAL_PERSON_ORGANIZATION ( #21, #97, #89 ) ;
#273 = CC_DESIGN_PERSON_AND_ORGANIZATION_ASSIGNMENT ( #172, #109, ( #256 ) ) ;
#274 = FACE_OUTER_BOUND ( 'NONE', #45, .T. ) ;
#275 = EDGE_CURVE ( 'NONE', #93, #107, #92, .T. ) ;
#276 = EDGE_LOOP ( 'NONE', ( #289, #113 ) ) ;
#277 = CARTESIAN_POINT ( 'NONE',  ( 6.250000000000000000, 0.0000000000000000000, -3.000000000000000000 ) ) ;
#278 = DIRECTION ( 'NONE',  ( 0.0000000000000000000, -0.0000000000000000000, 1.000000000000000000 ) ) ;
#279 = VECTOR ( 'NONE', #257, 1000.000000000000000 ) ;
#280 = CLOSED_SHELL ( 'NONE', ( #189, #164, #211, #305, #73 ) ) ;
#281 = CARTESIAN_POINT ( 'NONE',  ( 5.034722790088319600, -9.248635724213842400E-016, 0.0003850784814430780200 ) ) ;
#282 = CARTESIAN_POINT ( 'NONE',  ( 0.0000000000000000000, 2.951389070461460000, -5.308339292969079800E-005 ) ) ;
#283 = CARTESIAN_POINT ( 'NONE',  ( 6.250000000000000000, -1.148106374200640000E-015, 0.001732850333418270000 ) ) ;
#284 = CALENDAR_DATE ( 2017, 31, 1 ) ;
#285 = DIRECTION ( 'NONE',  ( 0.0000000000000000000, -0.0000000000000000000, 1.000000000000000000 ) ) ;
#286 = CARTESIAN_POINT ( 'NONE',  ( -5.034722790088319600, 5.034722790088319600, 0.0003850784814430780700 ) ) ;
#287 = CALENDAR_DATE ( 2017, 31, 1 ) ;
#288 = PERSON_AND_ORGANIZATION ( #159, #207 ) ;
#289 = ORIENTED_EDGE ( 'NONE', *, *, #19, .F. ) ;
#290 = CARTESIAN_POINT ( 'NONE',  ( 6.250000000000000000, -6.250000000000000000, 0.001732850333418270000 ) ) ;
#291 = B_SPLINE_CURVE_WITH_KNOTS ( 'NONE', 3,
 ( #98, #158, #262, #157, #185 ),
 .UNSPECIFIED., .F., .F.,
 ( 4, 1, 4 ),
 ( 0.0000000000000000000, 0.4166666309254979900, 1.000000000000000000 ),
 .UNSPECIFIED. ) ;
#292 = DIRECTION ( 'NONE',  ( -1.000000000000000000, 0.0000000000000000000, -0.0000000000000000000 ) ) ;
#293 = ORIENTED_EDGE ( 'NONE', *, *, #134, .T. ) ;
#294 = APPLICATION_PROTOCOL_DEFINITION ( 'international standard', 'config_control_design', 1994, #67 ) ;
#295 = APPROVAL_STATUS ( 'not_yet_approved' ) ;
#296 = PLANE ( 'NONE',  #190 ) ;
#297 = PERSON_AND_ORGANIZATION ( #159, #207 ) ;
#298 = DATE_TIME_ROLE ( 'classification_date' ) ;
#299 = ORIENTED_EDGE ( 'NONE', *, *, #25, .T. ) ;
#300 = AXIS2_PLACEMENT_3D ( 'NONE', #130, #271, #270 ) ;
#301 = EDGE_LOOP ( 'NONE', ( #268, #173, #299, #23 ) ) ;
#302 = CARTESIAN_POINT ( 'NONE',  ( 6.250000000000000000, 0.0000000000000000000, 0.001732850333418270000 ) ) ;
#303 = CC_DESIGN_DATE_AND_TIME_ASSIGNMENT ( #63, #298, ( #256 ) ) ;
#304 = CARTESIAN_POINT ( 'NONE',  ( 0.0000000000000000000, 8.881784197001250400E-016, -3.000000000000000000 ) ) ;
#305 = ADVANCED_FACE ( 'NONE', ( #245 ), #296, .T. ) ;
ENDSEC;
END-ISO-10303-21;
