ISO-10303-21;
HEADER;
FILE_DESCRIPTION (( 'STEP AP203' ),
    '1' );
FILE_NAME ('4932-E0W.STEP',
    '2015-07-13T15:20:16',
    ( 'admin' ),
    ( '' ),
    'SwSTEP 2.0',
    'SolidWorks 2014',
    '' );
FILE_SCHEMA (( 'CONFIG_CONTROL_DESIGN' ));
ENDSEC;

DATA;
#1 = LINE ( 'NONE', #363, #171 ) ;
#2 = CIRCLE ( 'NONE', #333, 25.15421355642251900 ) ;
#3 = AXIS2_PLACEMENT_3D ( 'NONE', #291, #67, #268 ) ;
#4 = CIRCLE ( 'NONE', #265, 25.15421355642251900 ) ;
#5 = ORIENTED_EDGE ( 'NONE', *, *, #8, .T. ) ;
#6 = EDGE_CURVE ( 'NONE', #76, #35, #242, .T. ) ;
#7 = APPROVAL_ROLE ( '' ) ;
#8 = EDGE_CURVE ( 'NONE', #127, #249, #79, .T. ) ;
#9 = COORDINATED_UNIVERSAL_TIME_OFFSET ( 5, 0, .BEHIND. ) ;
#10 = CIRCLE ( 'NONE', #80, 25.19125772017022400 ) ;
#11 = CARTESIAN_POINT ( 'NONE',  ( -25.39999999999999500, 3.110602869834276100E-015, -5.234315480442321100 ) ) ;
#12 = CONICAL_SURFACE ( 'NONE', #180, 25.39999999999999500, 0.8798239283715856300 ) ;
#13 = ORIENTED_EDGE ( 'NONE', *, *, #342, .F. ) ;
#14 = CARTESIAN_POINT ( 'NONE',  ( 0.0000000000000000000, 0.0000000000000000000, 4.721252732518533600 ) ) ;
#15 = CC_DESIGN_PERSON_AND_ORGANIZATION_ASSIGNMENT ( #164, #296, ( #329 ) ) ;
#16 = LOCAL_TIME ( 11, 20, 16.00000000000000000, #103 ) ;
#17 = EDGE_LOOP ( 'NONE', ( #280, #222, #320, #22 ) ) ;
#18 = AXIS2_PLACEMENT_3D ( 'NONE', #31, #236, #68 ) ;
#19 = CC_DESIGN_PERSON_AND_ORGANIZATION_ASSIGNMENT ( #129, #293, ( #61 ) ) ;
#20 = DIRECTION ( 'NONE',  ( 0.0000000000000000000, 0.0000000000000000000, -1.000000000000000000 ) ) ;
#21 = LINE ( 'NONE', #195, #304 ) ;
#22 = ORIENTED_EDGE ( 'NONE', *, *, #240, .T. ) ;
#23 = CARTESIAN_POINT ( 'NONE',  ( -3.085039313350251500E-015, -25.19125772017022400, -2.693577004631599900 ) ) ;
#24 = EDGE_CURVE ( 'NONE', #282, #332, #315, .T. ) ;
#25 = APPROVAL_DATE_TIME ( #47, #63 ) ;
#26 = VERTEX_POINT ( 'NONE', #55 ) ;
#27 = EDGE_CURVE ( 'NONE', #127, #227, #10, .T. ) ;
#28 = CARTESIAN_POINT ( 'NONE',  ( -25.19125772017022400, 0.0000000000000000000, -2.693577004631596300 ) ) ;
#29 = FACE_OUTER_BOUND ( 'NONE', #118, .T. ) ;
#30 = ORIENTED_EDGE ( 'NONE', *, *, #8, .F. ) ;
#31 = CARTESIAN_POINT ( 'NONE',  ( 0.0000000000000000000, 0.0000000000000000000, -138.3787472674814600 ) ) ;
#32 = AXIS2_PLACEMENT_3D ( 'NONE', #145, #172, #337 ) ;
#33 = CC_DESIGN_PERSON_AND_ORGANIZATION_ASSIGNMENT ( #83, #132, ( #329 ) ) ;
#34 = APPROVAL_PERSON_ORGANIZATION ( #123, #63, #345 ) ;
#35 = VERTEX_POINT ( 'NONE', #23 ) ;
#36 = CIRCLE ( 'NONE', #37, 25.15421355642251900 ) ;
#37 = AXIS2_PLACEMENT_3D ( 'NONE', #221, #46, #251 ) ;
#38 = PRODUCT_DEFINITION ( 'UNKNOWN', '', #329, #270 ) ;
#39 = CARTESIAN_POINT ( 'NONE',  ( -25.39999999999999500, 3.110602869834276500E-015, 4.721252732518533600 ) ) ;
#40 = FACE_OUTER_BOUND ( 'NONE', #41, .T. ) ;
#41 = EDGE_LOOP ( 'NONE', ( #104, #110, #300, #115, #186 ) ) ;
#42 = FACE_OUTER_BOUND ( 'NONE', #130, .T. ) ;
#43 = CARTESIAN_POINT ( 'NONE',  ( 25.39999999999999500, 0.0000000000000000000, -5.234315480442322000 ) ) ;
#44 = DIRECTION ( 'NONE',  ( 1.000000000000000000, 0.0000000000000000000, 0.0000000000000000000 ) ) ;
#45 = DIRECTION ( 'NONE',  ( -0.0000000000000000000, -0.0000000000000000000, 1.000000000000000000 ) ) ;
#46 = DIRECTION ( 'NONE',  ( 0.0000000000000000000, 0.0000000000000000000, -1.000000000000000000 ) ) ;
#47 = DATE_AND_TIME ( #339, #261 ) ;
#48 = VERTEX_POINT ( 'NONE', #285 ) ;
#49 = EDGE_CURVE ( 'NONE', #35, #140, #233, .T. ) ;
#50 = EDGE_CURVE ( 'NONE', #26, #249, #165, .T. ) ;
#51 = ORIENTED_EDGE ( 'NONE', *, *, #6, .T. ) ;
#52 = DIRECTION ( 'NONE',  ( -1.000000000000000000, 0.0000000000000000000, 0.0000000000000000000 ) ) ;
#53 = ADVANCED_FACE ( 'NONE', ( #307 ), #226, .T. ) ;
#54 = DIRECTION ( 'NONE',  ( -1.224646799147353200E-016, -1.000000000000000000, 0.0000000000000000000 ) ) ;
#55 = CARTESIAN_POINT ( 'NONE',  ( -25.39999999999999500, 3.110602869834276500E-015, -3.078907729942959000 ) ) ;
#56 = CARTESIAN_POINT ( 'NONE',  ( 0.0000000000000000000, 0.0000000000000000000, -5.234315480442322000 ) ) ;
#57 = AXIS2_PLACEMENT_3D ( 'NONE', #56, #260, #92 ) ;
#58 = SECURITY_CLASSIFICATION ( '', '', #323 ) ;
#59 = ORIENTED_EDGE ( 'NONE', *, *, #358, .F. ) ;
#60 = MANIFOLD_SOLID_BREP ( '4932-001-1-solid1', #159 ) ;
#61 = PRODUCT ( '4932-E0W', '4932-E0W', '', ( #96 ) ) ;
#62 = AXIS2_PLACEMENT_3D ( 'NONE', #112, #305, #138 ) ;
#63 = APPROVAL ( #156, 'UNSPECIFIED' ) ;
#64 = CIRCLE ( 'NONE', #105, 135.3000000000000100 ) ;
#65 = EDGE_LOOP ( 'NONE', ( #69, #174, #210, #59 ) ) ;
#66 = DIRECTION ( 'NONE',  ( -1.000000000000000000, 0.0000000000000000000, 0.0000000000000000000 ) ) ;
#67 = DIRECTION ( 'NONE',  ( 0.0000000000000000000, 0.0000000000000000000, 1.000000000000000000 ) ) ;
#68 = DIRECTION ( 'NONE',  ( 0.0000000000000000000, -1.000000000000000000, 0.0000000000000000000 ) ) ;
#69 = ORIENTED_EDGE ( 'NONE', *, *, #24, .T. ) ;
#70 = DIRECTION ( 'NONE',  ( 1.224646799147353200E-016, 1.000000000000000000, 0.0000000000000000000 ) ) ;
#71 = EDGE_CURVE ( 'NONE', #269, #282, #1, .T. ) ;
#72 = CARTESIAN_POINT ( 'NONE',  ( 0.0000000000000000000, 0.0000000000000000000, -5.234315480442321100 ) ) ;
#73 = EDGE_CURVE ( 'NONE', #76, #26, #84, .T. ) ;
#74 = DATE_AND_TIME ( #151, #16 ) ;
#75 = FACE_OUTER_BOUND ( 'NONE', #295, .T. ) ;
#76 = VERTEX_POINT ( 'NONE', #28 ) ;
#77 = DIRECTION ( 'NONE',  ( 0.0000000000000000000, 0.0000000000000000000, -1.000000000000000000 ) ) ;
#78 = DIRECTION ( 'NONE',  ( -0.0000000000000000000, -0.0000000000000000000, 1.000000000000000000 ) ) ;
#79 = LINE ( 'NONE', #230, #94 ) ;
#80 = AXIS2_PLACEMENT_3D ( 'NONE', #148, #338, #176 ) ;
#81 = CC_DESIGN_PERSON_AND_ORGANIZATION_ASSIGNMENT ( #367, #163, ( #58 ) ) ;
#82 = AXIS2_PLACEMENT_3D ( 'NONE', #322, #162, #349 ) ;
#83 = PERSON_AND_ORGANIZATION ( #264, #206 ) ;
#84 = LINE ( 'NONE', #205, #287 ) ;
#85 = CC_DESIGN_APPROVAL ( #63, ( #38 ) ) ;
#86 = ADVANCED_FACE ( 'NONE', ( #42 ), #267, .T. ) ;
#87 = CARTESIAN_POINT ( 'NONE',  ( 0.0000000000000000000, 25.19125772017022400, -2.693577004631599900 ) ) ;
#88 = CYLINDRICAL_SURFACE ( 'NONE', #125, 25.39999999999999500 ) ;
#89 = CONICAL_SURFACE ( 'NONE', #243, 25.19125772017022400, 0.4964658318746986700 ) ;
#90 = DIRECTION ( 'NONE',  ( 0.0000000000000000000, 0.0000000000000000000, -1.000000000000000000 ) ) ;
#91 = EDGE_LOOP ( 'NONE', ( #30, #124, #212, #196, #207 ) ) ;
#92 = DIRECTION ( 'NONE',  ( 1.000000000000000000, 0.0000000000000000000, 0.0000000000000000000 ) ) ;
#93 = LOCAL_TIME ( 11, 20, 16.00000000000000000, #170 ) ;
#94 = VECTOR ( 'NONE', #146, 1000.000000000000000 ) ;
#95 = DIRECTION ( 'NONE',  ( 0.0000000000000000000, -1.000000000000000000, 0.0000000000000000000 ) ) ;
#96 = MECHANICAL_CONTEXT ( 'NONE', #235, 'mechanical' ) ;
#97 = ORIENTED_EDGE ( 'NONE', *, *, #71, .F. ) ;
#98 = AXIS2_PLACEMENT_3D ( 'NONE', #119, #336, #54 ) ;
#99 = CC_DESIGN_DATE_AND_TIME_ASSIGNMENT ( #74, #350, ( #58 ) ) ;
#100 = DIRECTION ( 'NONE',  ( -1.000000000000000000, 0.0000000000000000000, 0.0000000000000000000 ) ) ;
#101 = APPROVAL_ROLE ( '' ) ;
#102 = CARTESIAN_POINT ( 'NONE',  ( 0.0000000000000000000, 0.0000000000000000000, -138.3787472674814600 ) ) ;
#103 = COORDINATED_UNIVERSAL_TIME_OFFSET ( 5, 0, .BEHIND. ) ;
#104 = ORIENTED_EDGE ( 'NONE', *, *, #357, .F. ) ;
#105 = AXIS2_PLACEMENT_3D ( 'NONE', #117, #239, #70 ) ;
#106 = CC_DESIGN_PERSON_AND_ORGANIZATION_ASSIGNMENT ( #325, #183, ( #38 ) ) ;
#107 = CARTESIAN_POINT ( 'NONE',  ( 3.080502711694194500E-015, 25.15421355642264000, -5.437574035266155000 ) ) ;
#108 = DIRECTION ( 'NONE',  ( 1.000000000000000000, 0.0000000000000000000, 0.0000000000000000000 ) ) ;
#109 = CIRCLE ( 'NONE', #214, 25.19125772017022400 ) ;
#110 = ORIENTED_EDGE ( 'NONE', *, *, #169, .F. ) ;
#111 = CARTESIAN_POINT ( 'NONE',  ( 0.0000000000000000000, 0.0000000000000000000, -5.437574035266158600 ) ) ;
#112 = CARTESIAN_POINT ( 'NONE',  ( 0.0000000000000000000, 0.0000000000000000000, -5.234315480442322000 ) ) ;
#113 = EDGE_CURVE ( 'NONE', #227, #140, #194, .T. ) ;
#114 = DATE_AND_TIME ( #189, #93 ) ;
#115 = ORIENTED_EDGE ( 'NONE', *, *, #71, .T. ) ;
#116 = ADVANCED_FACE ( 'NONE', ( #152 ), #352, .T. ) ;
#117 = CARTESIAN_POINT ( 'NONE',  ( 0.0000000000000000000, 0.0000000000000000000, -138.3787472674814600 ) ) ;
#118 = EDGE_LOOP ( 'NONE', ( #341, #5, #143, #134, #286 ) ) ;
#119 = CARTESIAN_POINT ( 'NONE',  ( 0.0000000000000000000, 0.0000000000000000000, -41.77874726748143500 ) ) ;
#120 = CARTESIAN_POINT ( 'NONE',  ( 0.0000000000000000000, 0.0000000000000000000, 4.721252732518533600 ) ) ;
#121 = AXIS2_PLACEMENT_3D ( 'NONE', #259, #90, #284 ) ;
#122 = APPROVAL ( #191, 'UNSPECIFIED' ) ;
#123 = PERSON_AND_ORGANIZATION ( #264, #206 ) ;
#124 = ORIENTED_EDGE ( 'NONE', *, *, #150, .F. ) ;
#125 = AXIS2_PLACEMENT_3D ( 'NONE', #14, #78, #330 ) ;
#126 = CC_DESIGN_DATE_AND_TIME_ASSIGNMENT ( #199, #247, ( #38 ) ) ;
#127 = VERTEX_POINT ( 'NONE', #283 ) ;
#128 = APPLICATION_CONTEXT ( 'configuration controlled 3d designs of mechanical parts and assemblies' ) ;
#129 = PERSON_AND_ORGANIZATION ( #264, #206 ) ;
#130 = EDGE_LOOP ( 'NONE', ( #364, #51, #360, #179 ) ) ;
#131 = EDGE_CURVE ( 'NONE', #348, #269, #2, .T. ) ;
#132 = PERSON_AND_ORGANIZATION_ROLE ( 'design_supplier' ) ;
#133 = DIRECTION ( 'NONE',  ( 0.0000000000000000000, 0.0000000000000000000, 1.000000000000000000 ) ) ;
#134 = ORIENTED_EDGE ( 'NONE', *, *, #73, .F. ) ;
#135 = CARTESIAN_POINT ( 'NONE',  ( 0.0000000000000000000, -8.284735596231844800E-015, -3.078747267481446700 ) ) ;
#136 = DIRECTION ( 'NONE',  ( -0.0000000000000000000, -0.0000000000000000000, 1.000000000000000000 ) ) ;
#137 = DIRECTION ( 'NONE',  ( -1.000000000000000000, 0.0000000000000000000, 0.0000000000000000000 ) ) ;
#138 = DIRECTION ( 'NONE',  ( 1.000000000000000000, 0.0000000000000000000, 0.0000000000000000000 ) ) ;
#139 = AXIS2_PLACEMENT_3D ( 'NONE', #266, #66, #292 ) ;
#140 = VERTEX_POINT ( 'NONE', #229 ) ;
#141 = CC_DESIGN_APPROVAL ( #122, ( #58 ) ) ;
#142 = AXIS2_PLACEMENT_3D ( 'NONE', #198, #271, #100 ) ;
#143 = ORIENTED_EDGE ( 'NONE', *, *, #50, .F. ) ;
#144 = ADVANCED_FACE ( 'NONE', ( #209 ), #215, .F. ) ;
#145 = CARTESIAN_POINT ( 'NONE',  ( 0.0000000000000000000, 0.0000000000000000000, -2.693577004631596300 ) ) ;
#146 = DIRECTION ( 'NONE',  ( 0.4763210266512491500, 5.833250206550333500E-017, -0.8792714481716668000 ) ) ;
#147 = DIRECTION ( 'NONE',  ( 1.000000000000000000, 0.0000000000000000000, 0.0000000000000000000 ) ) ;
#148 = CARTESIAN_POINT ( 'NONE',  ( 0.0000000000000000000, 0.0000000000000000000, -2.693577004631596300 ) ) ;
#149 = ORIENTED_EDGE ( 'NONE', *, *, #358, .T. ) ;
#150 = EDGE_CURVE ( 'NONE', #35, #127, #254, .T. ) ;
#151 = CALENDAR_DATE ( 2015, 13, 7 ) ;
#152 = FACE_OUTER_BOUND ( 'NONE', #326, .T. ) ;
#153 = EDGE_LOOP ( 'NONE', ( #277, #290, #253, #97, #335 ) ) ;
#154 =( LENGTH_UNIT ( ) NAMED_UNIT ( * ) SI_UNIT ( .MILLI., .METRE. ) );
#155 = CARTESIAN_POINT ( 'NONE',  ( 0.0000000000000000000, 0.0000000000000000000, -41.77874726748143500 ) ) ;
#156 = APPROVAL_STATUS ( 'not_yet_approved' ) ;
#157 = CARTESIAN_POINT ( 'NONE',  ( 0.0000000000000000000, 0.0000000000000000000, -5.437574035266158600 ) ) ;
#158 = VECTOR ( 'NONE', #217, 1000.000000000000200 ) ;
#159 = CLOSED_SHELL ( 'NONE', ( #228, #255, #144, #53, #86, #116, #204, #361, #308, #334 ) ) ;
#160 = AXIS2_PLACEMENT_3D ( 'NONE', #362, #202, #20 ) ;
#161 = CC_DESIGN_SECURITY_CLASSIFICATION ( #58, ( #329 ) ) ;
#162 = DIRECTION ( 'NONE',  ( 0.0000000000000000000, 0.0000000000000000000, -1.000000000000000000 ) ) ;
#163 = PERSON_AND_ORGANIZATION_ROLE ( 'classification_officer' ) ;
#164 = PERSON_AND_ORGANIZATION ( #264, #206 ) ;
#165 = CIRCLE ( 'NONE', #121, 25.39999999999999500 ) ;
#166 = AXIS2_PLACEMENT_3D ( 'NONE', #102, #297, #133 ) ;
#167 = CARTESIAN_POINT ( 'NONE',  ( -25.39999999999999500, 3.110602869834276500E-015, -5.234315480442322000 ) ) ;
#168 = FACE_OUTER_BOUND ( 'NONE', #17, .T. ) ;
#169 = EDGE_CURVE ( 'NONE', #48, #216, #36, .T. ) ;
#170 = COORDINATED_UNIVERSAL_TIME_OFFSET ( 5, 0, .BEHIND. ) ;
#171 = VECTOR ( 'NONE', #175, 1000.000000000000200 ) ;
#172 = DIRECTION ( 'NONE',  ( -0.0000000000000000000, -0.0000000000000000000, 1.000000000000000000 ) ) ;
#173 = CIRCLE ( 'NONE', #224, 25.15421355642251900 ) ;
#174 = ORIENTED_EDGE ( 'NONE', *, *, #342, .T. ) ;
#175 = DIRECTION ( 'NONE',  ( 0.7706266827131217400, 0.0000000000000000000, 0.6372868395711380800 ) ) ;
#176 = DIRECTION ( 'NONE',  ( -1.000000000000000000, 0.0000000000000000000, 0.0000000000000000000 ) ) ;
#177 = PRODUCT_RELATED_PRODUCT_CATEGORY ( 'detail', '', ( #61 ) ) ;
#178 = LOCAL_TIME ( 11, 20, 16.00000000000000000, #252 ) ;
#179 = ORIENTED_EDGE ( 'NONE', *, *, #113, .F. ) ;
#180 = AXIS2_PLACEMENT_3D ( 'NONE', #72, #213, #275 ) ;
#181 =( NAMED_UNIT ( * ) SI_UNIT ( $, .STERADIAN. ) SOLID_ANGLE_UNIT ( ) );
#182 = CIRCLE ( 'NONE', #62, 25.39999999999999500 ) ;
#183 = PERSON_AND_ORGANIZATION_ROLE ( 'creator' ) ;
#184 = FACE_OUTER_BOUND ( 'NONE', #153, .T. ) ;
#185 = DIRECTION ( 'NONE',  ( -1.000000000000000000, 0.0000000000000000000, 0.0000000000000000000 ) ) ;
#186 = ORIENTED_EDGE ( 'NONE', *, *, #188, .F. ) ;
#187 = CARTESIAN_POINT ( 'NONE',  ( 25.39999999999999500, 0.0000000000000000000, -3.078907729942959000 ) ) ;
#188 = EDGE_CURVE ( 'NONE', #332, #282, #182, .T. ) ;
#189 = CALENDAR_DATE ( 2015, 13, 7 ) ;
#190 = ORIENTED_EDGE ( 'NONE', *, *, #27, .T. ) ;
#191 = APPROVAL_STATUS ( 'not_yet_approved' ) ;
#192 = VECTOR ( 'NONE', #193, 1000.000000000000000 ) ;
#193 = DIRECTION ( 'NONE',  ( -0.0000000000000000000, -0.0000000000000000000, 1.000000000000000000 ) ) ;
#194 = CIRCLE ( 'NONE', #160, 46.49999999999997900 ) ;
#195 = CARTESIAN_POINT ( 'NONE',  ( 25.39999999999999500, 0.0000000000000000000, 4.721252732518533600 ) ) ;
#196 = ORIENTED_EDGE ( 'NONE', *, *, #73, .T. ) ;
#197 = DIRECTION ( 'NONE',  ( 0.0000000000000000000, 0.0000000000000000000, -1.000000000000000000 ) ) ;
#198 = CARTESIAN_POINT ( 'NONE',  ( 0.0000000000000000000, 0.0000000000000000000, -2.693577004631596300 ) ) ;
#199 = DATE_AND_TIME ( #272, #178 ) ;
#200 = ORIENTED_EDGE ( 'NONE', *, *, #188, .T. ) ;
#201 = AXIS2_PLACEMENT_3D ( 'NONE', #301, #278, #108 ) ;
#202 = DIRECTION ( 'NONE',  ( 1.000000000000000000, 0.0000000000000000000, 0.0000000000000000000 ) ) ;
#203 = ORIENTED_EDGE ( 'NONE', *, *, #113, .T. ) ;
#204 = ADVANCED_FACE ( 'NONE', ( #75 ), #88, .T. ) ;
#205 = CARTESIAN_POINT ( 'NONE',  ( -25.19125772017022400, 0.0000000000000000000, -2.693577004631596300 ) ) ;
#206 = ORGANIZATION ( 'UNSPECIFIED', 'UNSPECIFIED', '' ) ;
#207 = ORIENTED_EDGE ( 'NONE', *, *, #223, .F. ) ;
#208 = EDGE_CURVE ( 'NONE', #348, #355, #64, .T. ) ;
#209 = FACE_OUTER_BOUND ( 'NONE', #258, .T. ) ;
#210 = ORIENTED_EDGE ( 'NONE', *, *, #50, .T. ) ;
#211 = APPLICATION_PROTOCOL_DEFINITION ( 'international standard', 'config_control_design', 1994, #235 ) ;
#212 = ORIENTED_EDGE ( 'NONE', *, *, #6, .F. ) ;
#213 = DIRECTION ( 'NONE',  ( -0.0000000000000000000, -0.0000000000000000000, 1.000000000000000000 ) ) ;
#214 = AXIS2_PLACEMENT_3D ( 'NONE', #219, #45, #250 ) ;
#215 = SPHERICAL_SURFACE ( 'NONE', #18, 135.3000000000000100 ) ;
#216 = VERTEX_POINT ( 'NONE', #354 ) ;
#217 = DIRECTION ( 'NONE',  ( -0.7706266827131217400, 9.437455003221673400E-017, 0.6372868395711380800 ) ) ;
#218 = CARTESIAN_POINT ( 'NONE',  ( 0.0000000000000000000, 0.0000000000000000000, -138.3787472674814600 ) ) ;
#219 = CARTESIAN_POINT ( 'NONE',  ( 0.0000000000000000000, 0.0000000000000000000, -2.693577004631596300 ) ) ;
#220 = PRODUCT_DEFINITION_SHAPE ( 'NONE', 'NONE',  #38 ) ;
#221 = CARTESIAN_POINT ( 'NONE',  ( 0.0000000000000000000, 0.0000000000000000000, -5.437574035266158600 ) ) ;
#222 = ORIENTED_EDGE ( 'NONE', *, *, #131, .T. ) ;
#223 = EDGE_CURVE ( 'NONE', #249, #26, #318, .T. ) ;
#224 = AXIS2_PLACEMENT_3D ( 'NONE', #111, #303, #137 ) ;
#225 = CALENDAR_DATE ( 2015, 13, 7 ) ;
#226 = CYLINDRICAL_SURFACE ( 'NONE', #313, 25.39999999999999500 ) ;
#227 = VERTEX_POINT ( 'NONE', #87 ) ;
#228 = ADVANCED_FACE ( 'NONE', ( #29 ), #319, .T. ) ;
#229 = CARTESIAN_POINT ( 'NONE',  ( 0.0000000000000000000, 2.847303808017594600E-015, 4.721252732518534500 ) ) ;
#230 = CARTESIAN_POINT ( 'NONE',  ( 25.19125772017022400, 3.085039313350251500E-015, -2.693577004631596300 ) ) ;
#231 = LINE ( 'NONE', #11, #158 ) ;
#232 = APPROVAL_DATE_TIME ( #114, #347 ) ;
#233 = CIRCLE ( 'NONE', #98, 46.49999999999997200 ) ;
#234 = DIRECTION ( 'NONE',  ( -0.4763210266512491500, 0.0000000000000000000, -0.8792714481716668000 ) ) ;
#235 = APPLICATION_CONTEXT ( 'configuration controlled 3d designs of mechanical parts and assemblies' ) ;
#236 = DIRECTION ( 'NONE',  ( 1.000000000000000000, 0.0000000000000000000, 0.0000000000000000000 ) ) ;
#237 = CONICAL_SURFACE ( 'NONE', #201, 25.39999999999999500, 0.8798239283715856300 ) ;
#238 = ORIENTED_EDGE ( 'NONE', *, *, #208, .T. ) ;
#239 = DIRECTION ( 'NONE',  ( 1.000000000000000000, -1.224646799147353200E-016, 0.0000000000000000000 ) ) ;
#240 = EDGE_CURVE ( 'NONE', #48, #355, #257, .T. ) ;
#241 = APPROVAL_PERSON_ORGANIZATION ( #314, #347, #101 ) ;
#242 = CIRCLE ( 'NONE', #32, 25.19125772017022400 ) ;
#243 = AXIS2_PLACEMENT_3D ( 'NONE', #279, #197, #316 ) ;
#244 = ORIENTED_EDGE ( 'NONE', *, *, #223, .T. ) ;
#245 = CARTESIAN_POINT ( 'NONE',  ( 0.0000000000000000000, 0.0000000000000000000, -5.437574035266158600 ) ) ;
#246 = CARTESIAN_POINT ( 'NONE',  ( 25.15421355642251900, 0.0000000000000000000, -5.437574035266158600 ) ) ;
#247 = DATE_TIME_ROLE ( 'creation_date' ) ;
#248 = SPHERICAL_SURFACE ( 'NONE', #298, 135.3000000000000100 ) ;
#249 = VERTEX_POINT ( 'NONE', #187 ) ;
#250 = DIRECTION ( 'NONE',  ( -1.000000000000000000, 0.0000000000000000000, 0.0000000000000000000 ) ) ;
#251 = DIRECTION ( 'NONE',  ( -1.000000000000000000, 0.0000000000000000000, 0.0000000000000000000 ) ) ;
#252 = COORDINATED_UNIVERSAL_TIME_OFFSET ( 5, 0, .BEHIND. ) ;
#253 = ORIENTED_EDGE ( 'NONE', *, *, #24, .F. ) ;
#254 = CIRCLE ( 'NONE', #366, 25.19125772017022400 ) ;
#255 = ADVANCED_FACE ( 'NONE', ( #184 ), #12, .T. ) ;
#256 = DIRECTION ( 'NONE',  ( 0.0000000000000000000, 1.000000000000000000, 0.0000000000000000000 ) ) ;
#257 = CIRCLE ( 'NONE', #166, 135.3000000000000100 ) ;
#258 = EDGE_LOOP ( 'NONE', ( #262, #327, #238, #273 ) ) ;
#259 = CARTESIAN_POINT ( 'NONE',  ( 0.0000000000000000000, 0.0000000000000000000, -3.078907729942959000 ) ) ;
#260 = DIRECTION ( 'NONE',  ( -0.0000000000000000000, -0.0000000000000000000, 1.000000000000000000 ) ) ;
#261 = LOCAL_TIME ( 11, 20, 16.00000000000000000, #331 ) ;
#262 = ORIENTED_EDGE ( 'NONE', *, *, #169, .T. ) ;
#263 = FACE_OUTER_BOUND ( 'NONE', #91, .T. ) ;
#264 = PERSON ( 'UNSPECIFIED', 'UNSPECIFIED', 'UNSPECIFIED', ('UNSPECIFIED'), ('UNSPECIFIED'), ('UNSPECIFIED') ) ;
#265 = AXIS2_PLACEMENT_3D ( 'NONE', #245, #77, #276 ) ;
#266 = CARTESIAN_POINT ( 'NONE',  ( 0.0000000000000000000, 0.0000000000000000000, -41.77874726748143500 ) ) ;
#267 = SPHERICAL_SURFACE ( 'NONE', #139, 46.49999999999997200 ) ;
#268 = DIRECTION ( 'NONE',  ( 1.000000000000000000, 0.0000000000000000000, 0.0000000000000000000 ) ) ;
#269 = VERTEX_POINT ( 'NONE', #246 ) ;
#270 = DESIGN_CONTEXT ( 'detailed design', #128, 'design' ) ;
#271 = DIRECTION ( 'NONE',  ( 0.0000000000000000000, 0.0000000000000000000, -1.000000000000000000 ) ) ;
#272 = CALENDAR_DATE ( 2015, 13, 7 ) ;
#273 = ORIENTED_EDGE ( 'NONE', *, *, #240, .F. ) ;
#274 = APPROVAL_STATUS ( 'not_yet_approved' ) ;
#275 = DIRECTION ( 'NONE',  ( 1.000000000000000000, 0.0000000000000000000, 0.0000000000000000000 ) ) ;
#276 = DIRECTION ( 'NONE',  ( -1.000000000000000000, 0.0000000000000000000, 0.0000000000000000000 ) ) ;
#277 = ORIENTED_EDGE ( 'NONE', *, *, #340, .F. ) ;
#278 = DIRECTION ( 'NONE',  ( -0.0000000000000000000, -0.0000000000000000000, 1.000000000000000000 ) ) ;
#279 = CARTESIAN_POINT ( 'NONE',  ( 0.0000000000000000000, 0.0000000000000000000, -2.693577004631596300 ) ) ;
#280 = ORIENTED_EDGE ( 'NONE', *, *, #208, .F. ) ;
#281 =( GEOMETRIC_REPRESENTATION_CONTEXT ( 3 ) GLOBAL_UNCERTAINTY_ASSIGNED_CONTEXT ( ( #356 ) ) GLOBAL_UNIT_ASSIGNED_CONTEXT ( ( #154, #343, #181 ) ) REPRESENTATION_CONTEXT ( 'NONE', 'WORKASPACE' ) );
#282 = VERTEX_POINT ( 'NONE', #43 ) ;
#283 = CARTESIAN_POINT ( 'NONE',  ( 25.19125772017022400, 3.097821091592264200E-015, -2.693577004631596300 ) ) ;
#284 = DIRECTION ( 'NONE',  ( -1.000000000000000000, 0.0000000000000000000, 0.0000000000000000000 ) ) ;
#285 = CARTESIAN_POINT ( 'NONE',  ( 0.0000000000000000000, -25.15421355642264000, -5.437574035266155000 ) ) ;
#286 = ORIENTED_EDGE ( 'NONE', *, *, #321, .F. ) ;
#287 = VECTOR ( 'NONE', #234, 1000.000000000000000 ) ;
#288 = APPROVAL_PERSON_ORGANIZATION ( #359, #122, #7 ) ;
#289 = APPROVAL_DATE_TIME ( #299, #122 ) ;
#290 = ORIENTED_EDGE ( 'NONE', *, *, #357, .T. ) ;
#291 = CARTESIAN_POINT ( 'NONE',  ( 0.0000000000000000000, 0.0000000000000000000, 0.0000000000000000000 ) ) ;
#292 = DIRECTION ( 'NONE',  ( 0.0000000000000000000, 1.000000000000000000, 0.0000000000000000000 ) ) ;
#293 = PERSON_AND_ORGANIZATION_ROLE ( 'design_owner' ) ;
#294 = SHAPE_DEFINITION_REPRESENTATION ( #220, #309 ) ;
#295 = EDGE_LOOP ( 'NONE', ( #13, #200, #149, #244 ) ) ;
#296 = PERSON_AND_ORGANIZATION_ROLE ( 'creator' ) ;
#297 = DIRECTION ( 'NONE',  ( -1.000000000000000000, -0.0000000000000000000, -0.0000000000000000000 ) ) ;
#298 = AXIS2_PLACEMENT_3D ( 'NONE', #218, #44, #95 ) ;
#299 = DATE_AND_TIME ( #225, #306 ) ;
#300 = ORIENTED_EDGE ( 'NONE', *, *, #324, .F. ) ;
#301 = CARTESIAN_POINT ( 'NONE',  ( 0.0000000000000000000, 0.0000000000000000000, -5.234315480442321100 ) ) ;
#302 = CARTESIAN_POINT ( 'NONE',  ( 0.0000000000000000000, 0.0000000000000000000, -2.693577004631596300 ) ) ;
#303 = DIRECTION ( 'NONE',  ( 0.0000000000000000000, 0.0000000000000000000, -1.000000000000000000 ) ) ;
#304 = VECTOR ( 'NONE', #353, 1000.000000000000000 ) ;
#305 = DIRECTION ( 'NONE',  ( -0.0000000000000000000, -0.0000000000000000000, 1.000000000000000000 ) ) ;
#306 = LOCAL_TIME ( 11, 20, 16.00000000000000000, #9 ) ;
#307 = FACE_OUTER_BOUND ( 'NONE', #65, .T. ) ;
#308 = ADVANCED_FACE ( 'NONE', ( #40 ), #237, .T. ) ;
#309 = ADVANCED_BREP_SHAPE_REPRESENTATION ( '4932-E0W', ( #60, #3 ), #281 ) ;
#310 = LINE ( 'NONE', #39, #192 ) ;
#311 = ORIENTED_EDGE ( 'NONE', *, *, #49, .F. ) ;
#312 = DIRECTION ( 'NONE',  ( -0.0000000000000000000, -0.0000000000000000000, 1.000000000000000000 ) ) ;
#313 = AXIS2_PLACEMENT_3D ( 'NONE', #120, #312, #147 ) ;
#314 = PERSON_AND_ORGANIZATION ( #264, #206 ) ;
#315 = CIRCLE ( 'NONE', #57, 25.39999999999999500 ) ;
#316 = DIRECTION ( 'NONE',  ( -1.000000000000000000, 0.0000000000000000000, 0.0000000000000000000 ) ) ;
#317 = APPLICATION_PROTOCOL_DEFINITION ( 'international standard', 'config_control_design', 1994, #128 ) ;
#318 = CIRCLE ( 'NONE', #82, 25.39999999999999500 ) ;
#319 = CONICAL_SURFACE ( 'NONE', #142, 25.19125772017022400, 0.4964658318746986700 ) ;
#320 = ORIENTED_EDGE ( 'NONE', *, *, #324, .T. ) ;
#321 = EDGE_CURVE ( 'NONE', #227, #76, #109, .T. ) ;
#322 = CARTESIAN_POINT ( 'NONE',  ( 0.0000000000000000000, 0.0000000000000000000, -3.078907729942959000 ) ) ;
#323 = SECURITY_CLASSIFICATION_LEVEL ( 'unclassified' ) ;
#324 = EDGE_CURVE ( 'NONE', #269, #48, #173, .T. ) ;
#325 = PERSON_AND_ORGANIZATION ( #264, #206 ) ;
#326 = EDGE_LOOP ( 'NONE', ( #311, #344, #190, #203 ) ) ;
#327 = ORIENTED_EDGE ( 'NONE', *, *, #340, .T. ) ;
#328 = DIRECTION ( 'NONE',  ( -1.000000000000000000, 0.0000000000000000000, 0.0000000000000000000 ) ) ;
#329 = PRODUCT_DEFINITION_FORMATION_WITH_SPECIFIED_SOURCE ( 'ANY', '', #61, .NOT_KNOWN. ) ;
#330 = DIRECTION ( 'NONE',  ( 1.000000000000000000, 0.0000000000000000000, 0.0000000000000000000 ) ) ;
#331 = COORDINATED_UNIVERSAL_TIME_OFFSET ( 5, 0, .BEHIND. ) ;
#332 = VERTEX_POINT ( 'NONE', #167 ) ;
#333 = AXIS2_PLACEMENT_3D ( 'NONE', #157, #346, #185 ) ;
#334 = ADVANCED_FACE ( 'NONE', ( #263 ), #89, .T. ) ;
#335 = ORIENTED_EDGE ( 'NONE', *, *, #131, .F. ) ;
#336 = DIRECTION ( 'NONE',  ( -1.000000000000000000, 1.224646799147353200E-016, 0.0000000000000000000 ) ) ;
#337 = DIRECTION ( 'NONE',  ( -1.000000000000000000, 0.0000000000000000000, 0.0000000000000000000 ) ) ;
#338 = DIRECTION ( 'NONE',  ( -0.0000000000000000000, -0.0000000000000000000, 1.000000000000000000 ) ) ;
#339 = CALENDAR_DATE ( 2015, 13, 7 ) ;
#340 = EDGE_CURVE ( 'NONE', #216, #348, #4, .T. ) ;
#341 = ORIENTED_EDGE ( 'NONE', *, *, #27, .F. ) ;
#342 = EDGE_CURVE ( 'NONE', #332, #26, #310, .T. ) ;
#343 =( NAMED_UNIT ( * ) PLANE_ANGLE_UNIT ( ) SI_UNIT ( $, .RADIAN. ) );
#344 = ORIENTED_EDGE ( 'NONE', *, *, #150, .T. ) ;
#345 = APPROVAL_ROLE ( '' ) ;
#346 = DIRECTION ( 'NONE',  ( 0.0000000000000000000, 0.0000000000000000000, -1.000000000000000000 ) ) ;
#347 = APPROVAL ( #274, 'UNSPECIFIED' ) ;
#348 = VERTEX_POINT ( 'NONE', #107 ) ;
#349 = DIRECTION ( 'NONE',  ( -1.000000000000000000, 0.0000000000000000000, 0.0000000000000000000 ) ) ;
#350 = DATE_TIME_ROLE ( 'classification_date' ) ;
#351 = AXIS2_PLACEMENT_3D ( 'NONE', #155, #52, #256 ) ;
#352 = SPHERICAL_SURFACE ( 'NONE', #351, 46.49999999999997200 ) ;
#353 = DIRECTION ( 'NONE',  ( -0.0000000000000000000, -0.0000000000000000000, 1.000000000000000000 ) ) ;
#354 = CARTESIAN_POINT ( 'NONE',  ( -25.15421355642251900, 3.095552790764227800E-015, -5.437574035266158600 ) ) ;
#355 = VERTEX_POINT ( 'NONE', #135 ) ;
#356 = UNCERTAINTY_MEASURE_WITH_UNIT (LENGTH_MEASURE( 1.000000000000000100E-005 ), #154, 'distance_accuracy_value', 'NONE');
#357 = EDGE_CURVE ( 'NONE', #216, #332, #231, .T. ) ;
#358 = EDGE_CURVE ( 'NONE', #282, #249, #21, .T. ) ;
#359 = PERSON_AND_ORGANIZATION ( #264, #206 ) ;
#360 = ORIENTED_EDGE ( 'NONE', *, *, #49, .T. ) ;
#361 = ADVANCED_FACE ( 'NONE', ( #168 ), #248, .F. ) ;
#362 = CARTESIAN_POINT ( 'NONE',  ( 0.0000000000000000000, 0.0000000000000000000, -41.77874726748143500 ) ) ;
#363 = CARTESIAN_POINT ( 'NONE',  ( 25.39999999999999500, 0.0000000000000000000, -5.234315480442321100 ) ) ;
#364 = ORIENTED_EDGE ( 'NONE', *, *, #321, .T. ) ;
#365 = CC_DESIGN_APPROVAL ( #347, ( #329 ) ) ;
#366 = AXIS2_PLACEMENT_3D ( 'NONE', #302, #136, #328 ) ;
#367 = PERSON_AND_ORGANIZATION ( #264, #206 ) ;
ENDSEC;
END-ISO-10303-21;
