ISO-10303-21;
HEADER;
FILE_DESCRIPTION (( 'STEP AP203' ),
    '1' );
FILE_NAME ('Web Model 11541_11541.step',
    '2019-12-17T13:43:49',
    ( '' ),
    ( '' ),
    'SwSTEP 2.0',
    'SolidWorks 2018',
    '' );
FILE_SCHEMA (( 'CONFIG_CONTROL_DESIGN' ));
ENDSEC;

DATA;
#1 = DATE_AND_TIME ( #245, #319 ) ;
#2 = CARTESIAN_POINT ( 'NONE',  ( 0.0000000000000000000, 0.0000000000000000000, 0.0000000000000000000 ) ) ;
#3 = ORIENTED_EDGE ( 'NONE', *, *, #77, .T. ) ;
#4 = CC_DESIGN_PERSON_AND_ORGANIZATION_ASSIGNMENT ( #8, #133, ( #291 ) ) ;
#5 = EDGE_CURVE ( 'NONE', #132, #167, #126, .T. ) ;
#6 = CARTESIAN_POINT ( 'NONE',  ( 1.568559786785000076, 0.9667101059604999991, -14.97100482091999929 ) ) ;
#7 = DIRECTION ( 'NONE',  ( -0.5000000000000169864, -0.8660254037844288266, 0.0000000000000000000 ) ) ;
#8 = PERSON_AND_ORGANIZATION ( #304, #252 ) ;
#9 = CC_DESIGN_DATE_AND_TIME_ASSIGNMENT ( #237, #187, ( #137 ) ) ;
#10 = PERSON_AND_ORGANIZATION_ROLE ( 'creator' ) ;
#11 = CIRCLE ( 'NONE', #254, 15.00000000000000000 ) ;
#12 = EDGE_LOOP ( 'NONE', ( #191, #186, #315, #175 ) ) ;
#13 = ADVANCED_FACE ( 'NONE', ( #280 ), #118, .F. ) ;
#14 = FACE_OUTER_BOUND ( 'NONE', #135, .T. ) ;
#15 = ADVANCED_FACE ( 'NONE', ( #257 ), #170, .F. ) ;
#16 = AXIS2_PLACEMENT_3D ( 'NONE', #52, #251, #272 ) ;
#17 = DIRECTION ( 'NONE',  ( 1.000000000000000000, 0.0000000000000000000, 0.0000000000000000000 ) ) ;
#18 = DIRECTION ( 'NONE',  ( 0.0000000000000000000, -1.000000000000000000, 0.0000000000000000000 ) ) ;
#19 = DIRECTION ( 'NONE',  ( 1.000000000000000000, 0.0000000000000000000, 0.0000000000000000000 ) ) ;
#20 = APPROVAL_ROLE ( '' ) ;
#21 = CARTESIAN_POINT ( 'NONE',  ( 0.5282980987593000055, -1.248217165408000096, -14.94857908972000082 ) ) ;
#22 = CIRCLE ( 'NONE', #53, 109.7719999999999914 ) ;
#23 = ORIENTED_EDGE ( 'NONE', *, *, #105, .F. ) ;
#24 = DIRECTION ( 'NONE',  ( 0.0000000000000000000, -1.000000000000000000, 0.0000000000000000000 ) ) ;
#25 = DIRECTION ( 'NONE',  ( 0.0000000000000000000, 1.000000000000000000, 0.0000000000000000000 ) ) ;
#26 = CARTESIAN_POINT ( 'NONE',  ( -13.41108606915000045, 0.0000000000000000000, -61.66786034739000399 ) ) ;
#27 = DIRECTION ( 'NONE',  ( 0.2682217213829839464, 0.0000000000000000000, 0.9633572069478428812 ) ) ;
#28 = VECTOR ( 'NONE', #207, 1000.000000000000114 ) ;
#29 = EDGE_LOOP ( 'NONE', ( #151, #66, #269, #152 ) ) ;
#30 = CARTESIAN_POINT ( 'NONE',  ( 0.0000000000000000000, -0.4676483514465999969, -13.98555442113000069 ) ) ;
#31 = APPROVAL_DATE_TIME ( #39, #309 ) ;
#32 = FACE_OUTER_BOUND ( 'NONE', #121, .T. ) ;
#33 = CARTESIAN_POINT ( 'NONE',  ( 0.0000000000000000000, -0.9282861583027000041, -14.46424283821999879 ) ) ;
#34 = PERSON_AND_ORGANIZATION_ROLE ( 'design_owner' ) ;
#35 = APPLICATION_CONTEXT ( 'configuration controlled 3d designs of mechanical parts and assemblies' ) ;
#36 = ORIENTED_EDGE ( 'NONE', *, *, #173, .T. ) ;
#37 = ORIENTED_EDGE ( 'NONE', *, *, #149, .F. ) ;
#38 = ADVANCED_BREP_SHAPE_REPRESENTATION ( 'Web Model 11541_11541', ( #229, #141 ), #59 ) ;
#39 = DATE_AND_TIME ( #76, #297 ) ;
#40 = ORIENTED_EDGE ( 'NONE', *, *, #105, .T. ) ;
#41 = ADVANCED_FACE ( 'NONE', ( #32 ), #85, .T. ) ;
#42 = CARTESIAN_POINT ( 'NONE',  ( 8.936359726738000830, 14.30717967696999970, 0.0000000000000000000 ) ) ;
#43 = ADVANCED_FACE ( 'NONE', ( #235 ), #148, .F. ) ;
#44 = CARTESIAN_POINT ( 'NONE',  ( 8.536359726738000475, 15.00000000000000000, 0.0000000000000000000 ) ) ;
#45 = COORDINATED_UNIVERSAL_TIME_OFFSET ( 5, 0, .BEHIND. ) ;
#46 = ORIENTED_EDGE ( 'NONE', *, *, #149, .T. ) ;
#47 = DIRECTION ( 'NONE',  ( 0.0000000000000000000, -1.000000000000000000, 0.0000000000000000000 ) ) ;
#48 = DIRECTION ( 'NONE',  ( 0.2682217213829840019, 0.0000000000000000000, 0.9633572069478428812 ) ) ;
#49 = ORIENTED_EDGE ( 'NONE', *, *, #69, .F. ) ;
#50 = PERSON_AND_ORGANIZATION ( #304, #252 ) ;
#51 = UNCERTAINTY_MEASURE_WITH_UNIT (LENGTH_MEASURE( 1.000000000000000082E-05 ), #256, 'distance_accuracy_value', 'NONE');
#52 = CARTESIAN_POINT ( 'NONE',  ( 8.536359726738000475, 0.0000000000000000000, 0.0000000000000000000 ) ) ;
#53 = AXIS2_PLACEMENT_3D ( 'NONE', #307, #216, #112 ) ;
#54 = CARTESIAN_POINT ( 'NONE',  ( 3.081975026444000232, 0.5045331013489000593, -14.99408333969999951 ) ) ;
#55 = EDGE_LOOP ( 'NONE', ( #71, #182 ) ) ;
#56 = EDGE_CURVE ( 'NONE', #266, #167, #246, .T. ) ;
#57 = CARTESIAN_POINT ( 'NONE',  ( 0.0000000000000000000, 0.1565367753919000016, -13.66249089565000041 ) ) ;
#58 = AXIS2_PLACEMENT_3D ( 'NONE', #200, #73, #47 ) ;
#59 =( GEOMETRIC_REPRESENTATION_CONTEXT ( 3 ) GLOBAL_UNCERTAINTY_ASSIGNED_CONTEXT ( ( #51 ) ) GLOBAL_UNIT_ASSIGNED_CONTEXT ( ( #256, #63, #238 ) ) REPRESENTATION_CONTEXT ( 'NONE', 'WORKASPACE' ) );
#60 = DIRECTION ( 'NONE',  ( -1.000000000000000000, 0.0000000000000000000, 0.0000000000000000000 ) ) ;
#61 = ORIENTED_EDGE ( 'NONE', *, *, #5, .F. ) ;
#62 = APPROVAL_STATUS ( 'not_yet_approved' ) ;
#63 =( NAMED_UNIT ( * ) PLANE_ANGLE_UNIT ( ) SI_UNIT ( $, .RADIAN. ) );
#64 = APPLICATION_PROTOCOL_DEFINITION ( 'international standard', 'config_control_design', 1994, #35 ) ;
#65 = COORDINATED_UNIVERSAL_TIME_OFFSET ( 5, 0, .BEHIND. ) ;
#66 = ORIENTED_EDGE ( 'NONE', *, *, #111, .F. ) ;
#67 = AXIS2_PLACEMENT_3D ( 'NONE', #244, #221, #18 ) ;
#68 = COORDINATED_UNIVERSAL_TIME_OFFSET ( 5, 0, .BEHIND. ) ;
#69 = EDGE_CURVE ( 'NONE', #242, #171, #284, .T. ) ;
#70 = CONICAL_SURFACE ( 'NONE', #104, 14.65358983848999941, 1.047197551196400456 ) ;
#71 = ORIENTED_EDGE ( 'NONE', *, *, #215, .T. ) ;
#72 = APPLICATION_PROTOCOL_DEFINITION ( 'international standard', 'config_control_design', 1994, #160 ) ;
#73 = DIRECTION ( 'NONE',  ( 0.0000000000000000000, 0.0000000000000000000, -1.000000000000000000 ) ) ;
#74 = CARTESIAN_POINT ( 'NONE',  ( 4.536359726737999587, 0.0000000000000000000, -15.00000000000000000 ) ) ;
#75 = DIRECTION ( 'NONE',  ( 0.0000000000000000000, 1.000000000000000000, 0.0000000000000000000 ) ) ;
#76 = CALENDAR_DATE ( 2019, 17, 12 ) ;
#77 = EDGE_CURVE ( 'NONE', #301, #108, #217, .T. ) ;
#78 = CARTESIAN_POINT ( 'NONE',  ( 4.056992496572000562, 0.1720683475947999974, -15.00000000000000000 ) ) ;
#79 = CYLINDRICAL_SURFACE ( 'NONE', #123, 15.00000000000000000 ) ;
#80 = ORIENTED_EDGE ( 'NONE', *, *, #101, .T. ) ;
#81 = CARTESIAN_POINT ( 'NONE',  ( 0.0000000000000000000, -1.231450182902999790, -14.77952395701999855 ) ) ;
#82 = EDGE_LOOP ( 'NONE', ( #199, #136 ) ) ;
#83 = DIRECTION ( 'NONE',  ( 0.0000000000000000000, 1.000000000000000000, 0.0000000000000000000 ) ) ;
#84 = APPROVAL_ROLE ( '' ) ;
#85 = CYLINDRICAL_SURFACE ( 'NONE', #253, 15.00000000000000000 ) ;
#86 = VERTEX_POINT ( 'NONE', #268 ) ;
#87 = APPROVAL_DATE_TIME ( #155, #219 ) ;
#88 = FACE_OUTER_BOUND ( 'NONE', #12, .T. ) ;
#89 = DIRECTION ( 'NONE',  ( -1.000000000000000000, 0.0000000000000000000, 0.0000000000000000000 ) ) ;
#90 = CC_DESIGN_SECURITY_CLASSIFICATION ( #202, ( #291 ) ) ;
#91 = CARTESIAN_POINT ( 'NONE',  ( 0.0000000000000000000, 0.0000000000000000000, -13.50000000000000000 ) ) ;
#92 = EDGE_LOOP ( 'NONE', ( #36, #263, #23, #3, #258 ) ) ;
#93 = VECTOR ( 'NONE', #208, 1000.000000000000000 ) ;
#94 = CARTESIAN_POINT ( 'NONE',  ( 0.0000000000000000000, 1.382043755613000080, -14.93619613748999875 ) ) ;
#95 = CARTESIAN_POINT ( 'NONE',  ( 8.536359726738000475, -15.00000000000000000, 0.0000000000000000000 ) ) ;
#96 = CIRCLE ( 'NONE', #189, 14.30717967696999970 ) ;
#97 = CARTESIAN_POINT ( 'NONE',  ( -0.4468179863368999527, 0.0000000000000000000, 0.0000000000000000000 ) ) ;
#98 = CC_DESIGN_PERSON_AND_ORGANIZATION_ASSIGNMENT ( #113, #34, ( #281 ) ) ;
#99 = CARTESIAN_POINT ( 'NONE',  ( 8.736359726737999765, 0.0000000000000000000, 0.0000000000000000000 ) ) ;
#100 = B_SPLINE_CURVE_WITH_KNOTS ( 'NONE', 3,
 ( #154, #78, #54, #6, #255, #94 ),
 .UNSPECIFIED., .F., .F.,
 ( 4, 1, 1, 4 ),
 ( 0.0000000000000000000, 0.3333333333333000081, 0.6666666666667000474, 1.000000000000000000 ),
 .UNSPECIFIED. ) ;
#101 = EDGE_CURVE ( 'NONE', #242, #301, #230, .T. ) ;
#102 = CARTESIAN_POINT ( 'NONE',  ( 0.0000000000000000000, 1.231447602040000033, -14.77952127198000021 ) ) ;
#103 = ORIENTED_EDGE ( 'NONE', *, *, #228, .T. ) ;
#104 = AXIS2_PLACEMENT_3D ( 'NONE', #196, #60, #83 ) ;
#105 = EDGE_CURVE ( 'NONE', #301, #86, #220, .T. ) ;
#106 = APPROVAL_ROLE ( '' ) ;
#107 = APPROVAL_DATE_TIME ( #1, #275 ) ;
#108 = VERTEX_POINT ( 'NONE', #270 ) ;
#109 = AXIS2_PLACEMENT_3D ( 'NONE', #99, #89, #213 ) ;
#110 = ADVANCED_FACE ( 'NONE', ( #227 ), #131, .F. ) ;
#111 = EDGE_CURVE ( 'NONE', #310, #171, #157, .T. ) ;
#112 = DIRECTION ( 'NONE',  ( -1.000000000000000000, 0.0000000000000000000, 0.0000000000000000000 ) ) ;
#113 = PERSON_AND_ORGANIZATION ( #304, #252 ) ;
#114 = CARTESIAN_POINT ( 'NONE',  ( 0.0000000000000000000, -1.382043755613000080, -14.93619613748999875 ) ) ;
#115 = CLOSED_SHELL ( 'NONE', ( #43, #312, #262, #285, #41, #138, #110, #13, #15 ) ) ;
#116 = DATE_TIME_ROLE ( 'classification_date' ) ;
#117 = CARTESIAN_POINT ( 'NONE',  ( 3.081984972768999853, -0.5045298245260000369, -14.99408343596999948 ) ) ;
#118 = PLANE ( 'NONE',  #165 ) ;
#119 = PERSON_AND_ORGANIZATION ( #304, #252 ) ;
#120 = FACE_OUTER_BOUND ( 'NONE', #29, .T. ) ;
#121 = EDGE_LOOP ( 'NONE', ( #40, #145, #49, #80 ) ) ;
#122 = CARTESIAN_POINT ( 'NONE',  ( 0.0000000000000000000, 0.0000000000000000000, 0.0000000000000000000 ) ) ;
#123 = AXIS2_PLACEMENT_3D ( 'NONE', #97, #212, #128 ) ;
#124 = CARTESIAN_POINT ( 'NONE',  ( 0.0000000000000000000, 0.0000000000000000000, -13.50000000000000000 ) ) ;
#125 = ORIENTED_EDGE ( 'NONE', *, *, #185, .T. ) ;
#126 = B_SPLINE_CURVE_WITH_KNOTS ( 'NONE', 3,
 ( #114, #21, #225, #117, #318, #74 ),
 .UNSPECIFIED., .F., .F.,
 ( 4, 1, 1, 4 ),
 ( 0.0000000000000000000, 0.3333333333333000081, 0.6666666666667000474, 1.000000000000000000 ),
 .UNSPECIFIED. ) ;
#127 = CC_DESIGN_PERSON_AND_ORGANIZATION_ASSIGNMENT ( #295, #10, ( #137 ) ) ;
#128 = DIRECTION ( 'NONE',  ( 0.0000000000000000000, -1.000000000000000000, 0.0000000000000000000 ) ) ;
#129 = DIRECTION ( 'NONE',  ( -1.000000000000000000, 0.0000000000000000000, 0.0000000000000000000 ) ) ;
#130 = COORDINATED_UNIVERSAL_TIME_OFFSET ( 5, 0, .BEHIND. ) ;
#131 = CONICAL_SURFACE ( 'NONE', #243, 49.30897812219000542, 0.7853981633972997312 ) ;
#132 = VERTEX_POINT ( 'NONE', #181 ) ;
#133 = PERSON_AND_ORGANIZATION_ROLE ( 'design_supplier' ) ;
#134 = APPROVAL_PERSON_ORGANIZATION ( #119, #219, #20 ) ;
#135 = EDGE_LOOP ( 'NONE', ( #179, #218, #204, #125, #306, #163, #46 ) ) ;
#136 = ORIENTED_EDGE ( 'NONE', *, *, #215, .F. ) ;
#137 = PRODUCT_DEFINITION ( 'UNKNOWN', '', #291, #180 ) ;
#138 = ADVANCED_FACE ( 'NONE', ( #14 ), #79, .T. ) ;
#139 = CARTESIAN_POINT ( 'NONE',  ( 8.936359726738000830, 0.0000000000000000000, 0.0000000000000000000 ) ) ;
#140 = CARTESIAN_POINT ( 'NONE',  ( -0.4468179863368999527, 0.0000000000000000000, 0.0000000000000000000 ) ) ;
#141 = AXIS2_PLACEMENT_3D ( 'NONE', #267, #287, #260 ) ;
#142 = CARTESIAN_POINT ( 'NONE',  ( -13.41108606915000045, -0.6910218778062999778, -61.66786034739000399 ) ) ;
#143 = CIRCLE ( 'NONE', #300, 15.00000000000000533 ) ;
#144 = DIRECTION ( 'NONE',  ( 1.000000000000000000, 0.0000000000000000000, 0.0000000000000000000 ) ) ;
#145 = ORIENTED_EDGE ( 'NONE', *, *, #185, .F. ) ;
#146 = DIRECTION ( 'NONE',  ( -0.2682217213829840019, 0.0000000000000000000, -0.9633572069478428812 ) ) ;
#147 = CALENDAR_DATE ( 2019, 17, 12 ) ;
#148 = SPHERICAL_SURFACE ( 'NONE', #58, 109.7719999999999914 ) ;
#149 = EDGE_CURVE ( 'NONE', #167, #108, #100, .T. ) ;
#150 = PRODUCT_DEFINITION_SHAPE ( 'NONE', 'NONE',  #137 ) ;
#151 = ORIENTED_EDGE ( 'NONE', *, *, #69, .T. ) ;
#152 = ORIENTED_EDGE ( 'NONE', *, *, #190, .T. ) ;
#153 = PRODUCT_RELATED_PRODUCT_CATEGORY ( 'detail', '', ( #281 ) ) ;
#154 = CARTESIAN_POINT ( 'NONE',  ( 4.536359726737999587, 0.0000000000000000000, -15.00000000000000000 ) ) ;
#155 = DATE_AND_TIME ( #147, #166 ) ;
#156 = CARTESIAN_POINT ( 'NONE',  ( 8.536359726738000475, -15.00000000000000000, 0.0000000000000000000 ) ) ;
#157 = LINE ( 'NONE', #299, #161 ) ;
#158 = CC_DESIGN_PERSON_AND_ORGANIZATION_ASSIGNMENT ( #169, #290, ( #202 ) ) ;
#159 = MECHANICAL_CONTEXT ( 'NONE', #160, 'mechanical' ) ;
#160 = APPLICATION_CONTEXT ( 'configuration controlled 3d designs of mechanical parts and assemblies' ) ;
#161 = VECTOR ( 'NONE', #7, 1000.000000000000114 ) ;
#162 = CC_DESIGN_APPROVAL ( #219, ( #202 ) ) ;
#163 = ORIENTED_EDGE ( 'NONE', *, *, #5, .T. ) ;
#164 = CARTESIAN_POINT ( 'NONE',  ( 0.0000000000000000000, 15.00000000000000000, 0.0000000000000000000 ) ) ;
#165 = AXIS2_PLACEMENT_3D ( 'NONE', #222, #19, #247 ) ;
#166 = LOCAL_TIME ( 8, 43, 49.00000000000000000, #234 ) ;
#167 = VERTEX_POINT ( 'NONE', #233 ) ;
#168 = CARTESIAN_POINT ( 'NONE',  ( 8.936359726738000830, -14.30717967696999970, 0.0000000000000000000 ) ) ;
#169 = PERSON_AND_ORGANIZATION ( #304, #252 ) ;
#170 = CONICAL_SURFACE ( 'NONE', #198, 49.30897812218999832, 0.7853981633972997312 ) ;
#171 = VERTEX_POINT ( 'NONE', #95 ) ;
#172 = DIRECTION ( 'NONE',  ( 0.0000000000000000000, 1.000000000000000000, 0.0000000000000000000 ) ) ;
#173 = EDGE_CURVE ( 'NONE', #266, #132, #210, .T. ) ;
#174 = APPROVAL_PERSON_ORGANIZATION ( #184, #275, #106 ) ;
#175 = ORIENTED_EDGE ( 'NONE', *, *, #190, .F. ) ;
#176 = DIRECTION ( 'NONE',  ( 0.0000000000000000000, 1.000000000000000000, 0.0000000000000000000 ) ) ;
#177 = CARTESIAN_POINT ( 'NONE',  ( 8.536359726738000475, 15.00000000000000000, 0.0000000000000000000 ) ) ;
#178 = DIRECTION ( 'NONE',  ( -1.000000000000000000, 0.0000000000000000000, 0.0000000000000000000 ) ) ;
#179 = ORIENTED_EDGE ( 'NONE', *, *, #77, .F. ) ;
#180 = DESIGN_CONTEXT ( 'detailed design', #35, 'design' ) ;
#181 = CARTESIAN_POINT ( 'NONE',  ( 0.0000000000000000000, -1.382043755613000080, -14.93619613748999875 ) ) ;
#182 = ORIENTED_EDGE ( 'NONE', *, *, #288, .F. ) ;
#183 = CARTESIAN_POINT ( 'NONE',  ( 8.936359726738000830, 14.30717967696999970, 0.0000000000000000000 ) ) ;
#184 = PERSON_AND_ORGANIZATION ( #304, #252 ) ;
#185 = EDGE_CURVE ( 'NONE', #171, #86, #224, .T. ) ;
#186 = ORIENTED_EDGE ( 'NONE', *, *, #111, .T. ) ;
#187 = DATE_TIME_ROLE ( 'creation_date' ) ;
#188 = DIRECTION ( 'NONE',  ( 0.0000000000000000000, 1.000000000000000000, 0.0000000000000000000 ) ) ;
#189 = AXIS2_PLACEMENT_3D ( 'NONE', #265, #17, #193 ) ;
#190 = EDGE_CURVE ( 'NONE', #289, #242, #194, .T. ) ;
#191 = ORIENTED_EDGE ( 'NONE', *, *, #288, .T. ) ;
#192 = AXIS2_PLACEMENT_3D ( 'NONE', #2, #178, #75 ) ;
#193 = DIRECTION ( 'NONE',  ( 0.0000000000000000000, 1.000000000000000000, 0.0000000000000000000 ) ) ;
#194 = LINE ( 'NONE', #183, #28 ) ;
#195 = EDGE_LOOP ( 'NONE', ( #320, #61, #211 ) ) ;
#196 = CARTESIAN_POINT ( 'NONE',  ( 8.736359726737999765, 0.0000000000000000000, 0.0000000000000000000 ) ) ;
#197 = EDGE_CURVE ( 'NONE', #132, #86, #143, .T. ) ;
#198 = AXIS2_PLACEMENT_3D ( 'NONE', #142, #172, #146 ) ;
#199 = ORIENTED_EDGE ( 'NONE', *, *, #273, .T. ) ;
#200 = CARTESIAN_POINT ( 'NONE',  ( 117.7720000000000056, 0.0000000000000000000, 0.0000000000000000000 ) ) ;
#201 = AXIS2_PLACEMENT_3D ( 'NONE', #26, #25, #48 ) ;
#202 = SECURITY_CLASSIFICATION ( '', '', #317 ) ;
#203 = VECTOR ( 'NONE', #294, 1000.000000000000000 ) ;
#204 = ORIENTED_EDGE ( 'NONE', *, *, #232, .T. ) ;
#205 = CARTESIAN_POINT ( 'NONE',  ( 0.0000000000000000000, -1.382043755613000080, -14.93619613748999875 ) ) ;
#206 = AXIS2_PLACEMENT_3D ( 'NONE', #139, #316, #188 ) ;
#207 = DIRECTION ( 'NONE',  ( -0.5000000000000169864, 0.8660254037844288266, 0.0000000000000000000 ) ) ;
#208 = DIRECTION ( 'NONE',  ( -1.000000000000000000, 0.0000000000000000000, 0.0000000000000000000 ) ) ;
#209 = CARTESIAN_POINT ( 'NONE',  ( 0.0000000000000000000, 0.0000000000000000000, -13.50000000000000000 ) ) ;
#210 = B_SPLINE_CURVE_WITH_KNOTS ( 'NONE', 3,
 ( #124, #302, #30, #33, #81, #205 ),
 .UNSPECIFIED., .F., .F.,
 ( 4, 1, 1, 4 ),
 ( 0.0000000000000000000, 0.3333333333333000081, 0.6666666666667000474, 1.000000000000000000 ),
 .UNSPECIFIED. ) ;
#211 = ORIENTED_EDGE ( 'NONE', *, *, #173, .F. ) ;
#212 = DIRECTION ( 'NONE',  ( 1.000000000000000000, 0.0000000000000000000, 0.0000000000000000000 ) ) ;
#213 = DIRECTION ( 'NONE',  ( 0.0000000000000000000, 1.000000000000000000, 0.0000000000000000000 ) ) ;
#214 = APPROVAL_STATUS ( 'not_yet_approved' ) ;
#215 = EDGE_CURVE ( 'NONE', #289, #310, #22, .T. ) ;
#216 = DIRECTION ( 'NONE',  ( 0.0000000000000000000, 0.0000000000000000000, 1.000000000000000000 ) ) ;
#217 = CIRCLE ( 'NONE', #192, 15.00000000000000000 ) ;
#218 = ORIENTED_EDGE ( 'NONE', *, *, #101, .F. ) ;
#219 = APPROVAL ( #223, 'UNSPECIFIED' ) ;
#220 = CIRCLE ( 'NONE', #248, 15.00000000000000000 ) ;
#221 = DIRECTION ( 'NONE',  ( 0.0000000000000000000, 0.0000000000000000000, -1.000000000000000000 ) ) ;
#222 = CARTESIAN_POINT ( 'NONE',  ( 0.0000000000000000000, 0.0000000000000000000, 0.0000000000000000000 ) ) ;
#223 = APPROVAL_STATUS ( 'not_yet_approved' ) ;
#224 = LINE ( 'NONE', #156, #93 ) ;
#225 = CARTESIAN_POINT ( 'NONE',  ( 1.568571524218999924, -0.9667067725150999546, -14.97100505160999973 ) ) ;
#226 = DATE_AND_TIME ( #292, #264 ) ;
#227 = FACE_OUTER_BOUND ( 'NONE', #231, .T. ) ;
#228 = EDGE_CURVE ( 'NONE', #266, #108, #259, .T. ) ;
#229 = MANIFOLD_SOLID_BREP ( 'Web Model 11541.stp', #115 ) ;
#230 = LINE ( 'NONE', #177, #203 ) ;
#231 = EDGE_LOOP ( 'NONE', ( #37, #298, #103 ) ) ;
#232 = EDGE_CURVE ( 'NONE', #242, #171, #11, .T. ) ;
#233 = CARTESIAN_POINT ( 'NONE',  ( 4.536359726737999587, 0.0000000000000000000, -15.00000000000000000 ) ) ;
#234 = COORDINATED_UNIVERSAL_TIME_OFFSET ( 5, 0, .BEHIND. ) ;
#235 = FACE_OUTER_BOUND ( 'NONE', #82, .T. ) ;
#236 = CARTESIAN_POINT ( 'NONE',  ( 8.536359726738000475, 0.0000000000000000000, 0.0000000000000000000 ) ) ;
#237 = DATE_AND_TIME ( #241, #249 ) ;
#238 =( NAMED_UNIT ( * ) SI_UNIT ( $, .STERADIAN. ) SOLID_ANGLE_UNIT ( ) );
#239 = DIRECTION ( 'NONE',  ( -1.000000000000000000, 0.0000000000000000000, 0.0000000000000000000 ) ) ;
#240 = CC_DESIGN_APPROVAL ( #275, ( #291 ) ) ;
#241 = CALENDAR_DATE ( 2019, 17, 12 ) ;
#242 = VERTEX_POINT ( 'NONE', #44 ) ;
#243 = AXIS2_PLACEMENT_3D ( 'NONE', #250, #321, #27 ) ;
#244 = CARTESIAN_POINT ( 'NONE',  ( 117.7720000000000056, 0.0000000000000000000, 0.0000000000000000000 ) ) ;
#245 = CALENDAR_DATE ( 2019, 17, 12 ) ;
#246 = CIRCLE ( 'NONE', #201, 50.00000000000000711 ) ;
#247 = DIRECTION ( 'NONE',  ( 0.0000000000000000000, 1.000000000000000000, 0.0000000000000000000 ) ) ;
#248 = AXIS2_PLACEMENT_3D ( 'NONE', #122, #296, #176 ) ;
#249 = LOCAL_TIME ( 8, 43, 49.00000000000000000, #130 ) ;
#250 = CARTESIAN_POINT ( 'NONE',  ( -13.41108606915000045, 0.6910218778062999778, -61.66786034739000399 ) ) ;
#251 = DIRECTION ( 'NONE',  ( 1.000000000000000000, 0.0000000000000000000, 0.0000000000000000000 ) ) ;
#252 = ORGANIZATION ( 'UNSPECIFIED', 'UNSPECIFIED', '' ) ;
#253 = AXIS2_PLACEMENT_3D ( 'NONE', #140, #144, #24 ) ;
#254 = AXIS2_PLACEMENT_3D ( 'NONE', #236, #239, #308 ) ;
#255 = CARTESIAN_POINT ( 'NONE',  ( 0.5282930230269999861, 1.248218451173999988, -14.94857897075000075 ) ) ;
#256 =( LENGTH_UNIT ( ) NAMED_UNIT ( * ) SI_UNIT ( .MILLI., .METRE. ) );
#257 = FACE_OUTER_BOUND ( 'NONE', #195, .T. ) ;
#258 = ORIENTED_EDGE ( 'NONE', *, *, #228, .F. ) ;
#259 = B_SPLINE_CURVE_WITH_KNOTS ( 'NONE', 3,
 ( #209, #57, #313, #286, #102, #278 ),
 .UNSPECIFIED., .F., .F.,
 ( 4, 1, 1, 4 ),
 ( 0.0000000000000000000, 0.3333333333333000081, 0.6666666666667000474, 1.000000000000000000 ),
 .UNSPECIFIED. ) ;
#260 = DIRECTION ( 'NONE',  ( 1.000000000000000000, 0.0000000000000000000, 0.0000000000000000000 ) ) ;
#261 = CC_DESIGN_APPROVAL ( #309, ( #137 ) ) ;
#262 = ADVANCED_FACE ( 'NONE', ( #88 ), #70, .T. ) ;
#263 = ORIENTED_EDGE ( 'NONE', *, *, #197, .T. ) ;
#264 = LOCAL_TIME ( 8, 43, 49.00000000000000000, #68 ) ;
#265 = CARTESIAN_POINT ( 'NONE',  ( 8.936359726738000830, 0.0000000000000000000, 0.0000000000000000000 ) ) ;
#266 = VERTEX_POINT ( 'NONE', #91 ) ;
#267 = CARTESIAN_POINT ( 'NONE',  ( 0.0000000000000000000, 0.0000000000000000000, 0.0000000000000000000 ) ) ;
#268 = CARTESIAN_POINT ( 'NONE',  ( 0.0000000000000000000, -15.00000000000000000, 0.0000000000000000000 ) ) ;
#269 = ORIENTED_EDGE ( 'NONE', *, *, #273, .F. ) ;
#270 = CARTESIAN_POINT ( 'NONE',  ( 0.0000000000000000000, 1.382043755613000080, -14.93619613748999875 ) ) ;
#271 = SPHERICAL_SURFACE ( 'NONE', #67, 109.7719999999999914 ) ;
#272 = DIRECTION ( 'NONE',  ( 0.0000000000000000000, 1.000000000000000000, 0.0000000000000000000 ) ) ;
#273 = EDGE_CURVE ( 'NONE', #289, #310, #96, .T. ) ;
#274 = CIRCLE ( 'NONE', #206, 14.30717967696999970 ) ;
#275 = APPROVAL ( #214, 'UNSPECIFIED' ) ;
#276 = FACE_OUTER_BOUND ( 'NONE', #55, .T. ) ;
#277 = CARTESIAN_POINT ( 'NONE',  ( 0.0000000000000000000, 0.0000000000000000000, 0.0000000000000000000 ) ) ;
#278 = CARTESIAN_POINT ( 'NONE',  ( 0.0000000000000000000, 1.382043755613000080, -14.93619613748999875 ) ) ;
#279 = PERSON_AND_ORGANIZATION_ROLE ( 'creator' ) ;
#280 = FACE_OUTER_BOUND ( 'NONE', #92, .T. ) ;
#281 = PRODUCT ( 'Web Model 11541_11541', 'Web Model 11541_11541', '', ( #159 ) ) ;
#282 = CC_DESIGN_PERSON_AND_ORGANIZATION_ASSIGNMENT ( #283, #279, ( #291 ) ) ;
#283 = PERSON_AND_ORGANIZATION ( #304, #252 ) ;
#284 = CIRCLE ( 'NONE', #16, 15.00000000000000000 ) ;
#285 = ADVANCED_FACE ( 'NONE', ( #120 ), #293, .T. ) ;
#286 = CARTESIAN_POINT ( 'NONE',  ( 0.0000000000000000000, 0.9282799391856999538, -14.46423636895999998 ) ) ;
#287 = DIRECTION ( 'NONE',  ( 0.0000000000000000000, 0.0000000000000000000, 1.000000000000000000 ) ) ;
#288 = EDGE_CURVE ( 'NONE', #289, #310, #274, .T. ) ;
#289 = VERTEX_POINT ( 'NONE', #42 ) ;
#290 = PERSON_AND_ORGANIZATION_ROLE ( 'classification_officer' ) ;
#291 = PRODUCT_DEFINITION_FORMATION_WITH_SPECIFIED_SOURCE ( 'ANY', '', #281, .NOT_KNOWN. ) ;
#292 = CALENDAR_DATE ( 2019, 17, 12 ) ;
#293 = CONICAL_SURFACE ( 'NONE', #109, 14.65358983848999941, 1.047197551196400456 ) ;
#294 = DIRECTION ( 'NONE',  ( -1.000000000000000000, 0.0000000000000000000, 0.0000000000000000000 ) ) ;
#295 = PERSON_AND_ORGANIZATION ( #304, #252 ) ;
#296 = DIRECTION ( 'NONE',  ( 1.000000000000000000, 0.0000000000000000000, 0.0000000000000000000 ) ) ;
#297 = LOCAL_TIME ( 8, 43, 49.00000000000000000, #45 ) ;
#298 = ORIENTED_EDGE ( 'NONE', *, *, #56, .F. ) ;
#299 = CARTESIAN_POINT ( 'NONE',  ( 8.936359726738000830, -14.30717967696999970, 0.0000000000000000000 ) ) ;
#300 = AXIS2_PLACEMENT_3D ( 'NONE', #277, #129, #303 ) ;
#301 = VERTEX_POINT ( 'NONE', #164 ) ;
#302 = CARTESIAN_POINT ( 'NONE',  ( 0.0000000000000000000, -0.1565467427801000011, -13.66250124217000028 ) ) ;
#303 = DIRECTION ( 'NONE',  ( 0.0000000000000000000, -0.09213625037417015606, -0.9957464091660026551 ) ) ;
#304 = PERSON ( 'UNSPECIFIED', 'UNSPECIFIED', 'UNSPECIFIED', ('UNSPECIFIED'), ('UNSPECIFIED'), ('UNSPECIFIED') ) ;
#305 = APPROVAL_PERSON_ORGANIZATION ( #50, #309, #84 ) ;
#306 = ORIENTED_EDGE ( 'NONE', *, *, #197, .F. ) ;
#307 = CARTESIAN_POINT ( 'NONE',  ( 117.7720000000000056, 0.0000000000000000000, 0.0000000000000000000 ) ) ;
#308 = DIRECTION ( 'NONE',  ( 0.0000000000000000000, 1.000000000000000000, 0.0000000000000000000 ) ) ;
#309 = APPROVAL ( #62, 'UNSPECIFIED' ) ;
#310 = VERTEX_POINT ( 'NONE', #168 ) ;
#311 = CC_DESIGN_DATE_AND_TIME_ASSIGNMENT ( #226, #116, ( #202 ) ) ;
#312 = ADVANCED_FACE ( 'NONE', ( #276 ), #271, .F. ) ;
#313 = CARTESIAN_POINT ( 'NONE',  ( 0.0000000000000000000, 0.4676253002464999531, -13.98553047484000089 ) ) ;
#314 = SHAPE_DEFINITION_REPRESENTATION ( #150, #38 ) ;
#315 = ORIENTED_EDGE ( 'NONE', *, *, #232, .F. ) ;
#316 = DIRECTION ( 'NONE',  ( -1.000000000000000000, 0.0000000000000000000, 0.0000000000000000000 ) ) ;
#317 = SECURITY_CLASSIFICATION_LEVEL ( 'unclassified' ) ;
#318 = CARTESIAN_POINT ( 'NONE',  ( 4.056996711913000375, -0.1720668345024999879, -15.00000000000000000 ) ) ;
#319 = LOCAL_TIME ( 8, 43, 49.00000000000000000, #65 ) ;
#320 = ORIENTED_EDGE ( 'NONE', *, *, #56, .T. ) ;
#321 = DIRECTION ( 'NONE',  ( 0.0000000000000000000, -1.000000000000000000, 0.0000000000000000000 ) ) ;
ENDSEC;
END-ISO-10303-21;
