ISO-10303-21;
HEADER;
FILE_DESCRIPTION (( 'STEP AP203' ),
    '1' );
FILE_NAME ('Web Model 31432_31434.step',
    '2017-04-10T18:14:07',
    ( '' ),
    ( '' ),
    'SwSTEP 2.0',
    'SolidWorks 2016',
    '' );
FILE_SCHEMA (( 'CONFIG_CONTROL_DESIGN' ));
ENDSEC;

DATA;
#1 = ADVANCED_FACE ( 'NONE', ( #171 ), #127, .F. ) ;
#2 = LINE ( 'NONE', #93, #11 ) ;
#3 = CARTESIAN_POINT ( 'NONE',  ( 25.49999999999999600, -37.99999999999999300, 1.500000000000000000 ) ) ;
#4 = CALENDAR_DATE ( 2017, 10, 4 ) ;
#5 = ORIENTED_EDGE ( 'NONE', *, *, #151, .T. ) ;
#6 = CARTESIAN_POINT ( 'NONE',  ( -25.50000000000000700, 38.00000000000000700, 1.500000000000000000 ) ) ;
#7 = DATE_TIME_ROLE ( 'classification_date' ) ;
#8 = EDGE_LOOP ( 'NONE', ( #142, #177, #85, #189 ) ) ;
#9 = DATE_TIME_ROLE ( 'creation_date' ) ;
#10 = CARTESIAN_POINT ( 'NONE',  ( -25.50000000000000000, -37.99999999999999300, 1.500000000000000000 ) ) ;
#11 = VECTOR ( 'NONE', #195, 1000.000000000000000 ) ;
#12 = CARTESIAN_POINT ( 'NONE',  ( 25.49999999999998600, 38.00000000000000700, 1.500000000000000000 ) ) ;
#13 = VERTEX_POINT ( 'NONE', #6 ) ;
#14 = ORIENTED_EDGE ( 'NONE', *, *, #73, .T. ) ;
#15 = DIRECTION ( 'NONE',  ( -0.0000000000000000000, 0.0000000000000000000, 1.000000000000000000 ) ) ;
#16 = ORIENTED_EDGE ( 'NONE', *, *, #218, .F. ) ;
#17 = LOCAL_TIME ( 14, 14, 7.000000000000000000, #81 ) ;
#18 = CARTESIAN_POINT ( 'NONE',  ( -25.50000000000000000, -37.99999999999999300, -1.500000000000000000 ) ) ;
#19 = COORDINATED_UNIVERSAL_TIME_OFFSET ( 5, 0, .BEHIND. ) ;
#20 = APPLICATION_CONTEXT ( 'configuration controlled 3d designs of mechanical parts and assemblies' ) ;
#21 = APPROVAL_STATUS ( 'not_yet_approved' ) ;
#22 = COORDINATED_UNIVERSAL_TIME_OFFSET ( 5, 0, .BEHIND. ) ;
#23 = ADVANCED_FACE ( 'NONE', ( #126 ), #220, .F. ) ;
#24 = ORIENTED_EDGE ( 'NONE', *, *, #182, .T. ) ;
#25 = ADVANCED_FACE ( 'NONE', ( #172 ), #27, .F. ) ;
#26 = CARTESIAN_POINT ( 'NONE',  ( -25.50000000000000700, 38.00000000000000700, -1.500000000000000000 ) ) ;
#27 = PLANE ( 'NONE',  #233 ) ;
#28 = ORIENTED_EDGE ( 'NONE', *, *, #58, .T. ) ;
#29 = LINE ( 'NONE', #101, #226 ) ;
#30 = APPROVAL ( #228, 'UNSPECIFIED' ) ;
#31 = CARTESIAN_POINT ( 'NONE',  ( -25.50000000000000700, 38.00000000000000700, -1.500000000000000000 ) ) ;
#32 = ORIENTED_EDGE ( 'NONE', *, *, #131, .T. ) ;
#33 = PERSON ( 'UNSPECIFIED', 'UNSPECIFIED', 'UNSPECIFIED', ('UNSPECIFIED'), ('UNSPECIFIED'), ('UNSPECIFIED') ) ;
#34 = VECTOR ( 'NONE', #193, 1000.000000000000000 ) ;
#35 = VERTEX_POINT ( 'NONE', #31 ) ;
#36 = LINE ( 'NONE', #103, #51 ) ;
#37 = LINE ( 'NONE', #168, #45 ) ;
#38 = ORIENTED_EDGE ( 'NONE', *, *, #131, .F. ) ;
#39 = VERTEX_POINT ( 'NONE', #80 ) ;
#40 = CC_DESIGN_APPROVAL ( #178, ( #191 ) ) ;
#41 = APPROVAL_STATUS ( 'not_yet_approved' ) ;
#42 = FACE_OUTER_BOUND ( 'NONE', #94, .T. ) ;
#43 = DIRECTION ( 'NONE',  ( 0.0000000000000000000, -0.0000000000000000000, -1.000000000000000000 ) ) ;
#44 = ORIENTED_EDGE ( 'NONE', *, *, #135, .T. ) ;
#45 = VECTOR ( 'NONE', #104, 1000.000000000000000 ) ;
#46 = PERSON_AND_ORGANIZATION_ROLE ( 'design_owner' ) ;
#47 = PERSON_AND_ORGANIZATION_ROLE ( 'creator' ) ;
#48 = VECTOR ( 'NONE', #105, 1000.000000000000000 ) ;
#49 = DIRECTION ( 'NONE',  ( -0.0000000000000000000, -0.0000000000000000000, -1.000000000000000000 ) ) ;
#50 = LINE ( 'NONE', #173, #48 ) ;
#51 = VECTOR ( 'NONE', #121, 1000.000000000000000 ) ;
#52 = AXIS2_PLACEMENT_3D ( 'NONE', #190, #141, #225 ) ;
#53 = LINE ( 'NONE', #3, #90 ) ;
#54 = VECTOR ( 'NONE', #211, 1000.000000000000000 ) ;
#55 = LINE ( 'NONE', #56, #34 ) ;
#56 = CARTESIAN_POINT ( 'NONE',  ( -25.50000000000000000, -37.99999999999999300, 1.500000000000000000 ) ) ;
#57 = ORIENTED_EDGE ( 'NONE', *, *, #64, .T. ) ;
#58 = EDGE_CURVE ( 'NONE', #88, #137, #65, .T. ) ;
#59 = VERTEX_POINT ( 'NONE', #74 ) ;
#60 = DIRECTION ( 'NONE',  ( 0.0000000000000000000, -1.000000000000000000, 0.0000000000000000000 ) ) ;
#61 = LINE ( 'NONE', #138, #115 ) ;
#62 = DIRECTION ( 'NONE',  ( -1.000000000000000000, -0.0000000000000000000, -0.0000000000000000000 ) ) ;
#63 = DIRECTION ( 'NONE',  ( 0.0000000000000000000, 0.0000000000000000000, 1.000000000000000000 ) ) ;
#64 = EDGE_CURVE ( 'NONE', #170, #137, #53, .T. ) ;
#65 = LINE ( 'NONE', #203, #185 ) ;
#66 = PRODUCT ( 'Web Model 31432_31434', 'Web Model 31432_31434', '', ( #143 ) ) ;
#67 = CC_DESIGN_PERSON_AND_ORGANIZATION_ASSIGNMENT ( #97, #152, ( #70 ) ) ;
#68 = EDGE_LOOP ( 'NONE', ( #236, #194, #202, #82 ) ) ;
#69 = ORIENTED_EDGE ( 'NONE', *, *, #128, .T. ) ;
#70 = SECURITY_CLASSIFICATION ( '', '', #229 ) ;
#71 = APPROVAL_DATE_TIME ( #217, #148 ) ;
#72 = LOCAL_TIME ( 14, 14, 7.000000000000000000, #22 ) ;
#73 = EDGE_CURVE ( 'NONE', #209, #170, #55, .T. ) ;
#74 = CARTESIAN_POINT ( 'NONE',  ( 25.49999999999998600, 38.00000000000000700, -1.500000000000000000 ) ) ;
#75 = VECTOR ( 'NONE', #49, 1000.000000000000000 ) ;
#76 = CC_DESIGN_PERSON_AND_ORGANIZATION_ASSIGNMENT ( #160, #165, ( #191 ) ) ;
#77 = PRODUCT_DEFINITION_SHAPE ( 'NONE', 'NONE',  #154 ) ;
#78 = LOCAL_TIME ( 14, 14, 7.000000000000000000, #180 ) ;
#79 = APPLICATION_PROTOCOL_DEFINITION ( 'international standard', 'config_control_design', 1994, #83 ) ;
#80 = CARTESIAN_POINT ( 'NONE',  ( 25.49999999999998600, 38.00000000000000700, 1.500000000000000000 ) ) ;
#81 = COORDINATED_UNIVERSAL_TIME_OFFSET ( 5, 0, .BEHIND. ) ;
#82 = ORIENTED_EDGE ( 'NONE', *, *, #218, .T. ) ;
#83 = APPLICATION_CONTEXT ( 'configuration controlled 3d designs of mechanical parts and assemblies' ) ;
#84 = EDGE_LOOP ( 'NONE', ( #222, #112, #133, #57 ) ) ;
#85 = ORIENTED_EDGE ( 'NONE', *, *, #213, .F. ) ;
#86 = DATE_AND_TIME ( #4, #17 ) ;
#87 = ORIENTED_EDGE ( 'NONE', *, *, #73, .F. ) ;
#88 = VERTEX_POINT ( 'NONE', #18 ) ;
#89 = ADVANCED_FACE ( 'NONE', ( #212 ), #114, .F. ) ;
#90 = VECTOR ( 'NONE', #197, 1000.000000000000000 ) ;
#91 = PERSON_AND_ORGANIZATION ( #33, #163 ) ;
#92 = CARTESIAN_POINT ( 'NONE',  ( 0.0000000000000000000, 0.0000000000000000000, 1.500000000000000000 ) ) ;
#93 = CARTESIAN_POINT ( 'NONE',  ( -25.50000000000000000, -37.99999999999999300, 1.500000000000000000 ) ) ;
#94 = EDGE_LOOP ( 'NONE', ( #69, #32, #184, #14 ) ) ;
#95 = MANIFOLD_SOLID_BREP ( 'Boss-Extrude1', #227 ) ;
#96 = PERSON_AND_ORGANIZATION ( #33, #163 ) ;
#97 = PERSON_AND_ORGANIZATION ( #33, #163 ) ;
#98 =( NAMED_UNIT ( * ) SI_UNIT ( $, .STERADIAN. ) SOLID_ANGLE_UNIT ( ) );
#99 =( NAMED_UNIT ( * ) PLANE_ANGLE_UNIT ( ) SI_UNIT ( $, .RADIAN. ) );
#100 = CC_DESIGN_PERSON_AND_ORGANIZATION_ASSIGNMENT ( #96, #46, ( #66 ) ) ;
#101 = CARTESIAN_POINT ( 'NONE',  ( 25.49999999999998600, 38.00000000000000700, 1.500000000000000000 ) ) ;
#102 = CARTESIAN_POINT ( 'NONE',  ( -25.50000000000000700, 38.00000000000000700, 1.500000000000000000 ) ) ;
#103 = CARTESIAN_POINT ( 'NONE',  ( -25.50000000000000700, 38.00000000000000700, -1.500000000000000000 ) ) ;
#104 = DIRECTION ( 'NONE',  ( -0.0000000000000000000, -0.0000000000000000000, -1.000000000000000000 ) ) ;
#105 = DIRECTION ( 'NONE',  ( 1.369518533665900300E-016, -1.000000000000000000, 0.0000000000000000000 ) ) ;
#106 = AXIS2_PLACEMENT_3D ( 'NONE', #10, #129, #116 ) ;
#107 = CARTESIAN_POINT ( 'NONE',  ( 25.49999999999999600, -37.99999999999999300, -1.500000000000000000 ) ) ;
#108 = ADVANCED_FACE ( 'NONE', ( #144 ), #199, .F. ) ;
#109 = CARTESIAN_POINT ( 'NONE',  ( 25.49999999999999600, -37.99999999999999300, 1.500000000000000000 ) ) ;
#110 = DIRECTION ( 'NONE',  ( 1.000000000000000000, 1.369518533665900100E-016, -0.0000000000000000000 ) ) ;
#111 = LOCAL_TIME ( 14, 14, 7.000000000000000000, #19 ) ;
#112 = ORIENTED_EDGE ( 'NONE', *, *, #135, .F. ) ;
#113 = PRODUCT_RELATED_PRODUCT_CATEGORY ( 'detail', '', ( #66 ) ) ;
#114 = PLANE ( 'NONE',  #215 ) ;
#115 = VECTOR ( 'NONE', #62, 1000.000000000000000 ) ;
#116 = DIRECTION ( 'NONE',  ( 0.0000000000000000000, -0.0000000000000000000, 1.000000000000000000 ) ) ;
#117 = CALENDAR_DATE ( 2017, 10, 4 ) ;
#118 = APPROVAL_ROLE ( '' ) ;
#119 = DIRECTION ( 'NONE',  ( 1.000000000000000000, 0.0000000000000000000, 0.0000000000000000000 ) ) ;
#120 = ADVANCED_BREP_SHAPE_REPRESENTATION ( 'Web Model 31432_31434', ( #95, #205 ), #219 ) ;
#121 = DIRECTION ( 'NONE',  ( -1.000000000000000000, -0.0000000000000000000, -0.0000000000000000000 ) ) ;
#122 = DATE_AND_TIME ( #117, #72 ) ;
#123 = CARTESIAN_POINT ( 'NONE',  ( 25.49999999999998600, 38.00000000000000700, -1.500000000000000000 ) ) ;
#124 = CC_DESIGN_APPROVAL ( #148, ( #70 ) ) ;
#125 = DATE_AND_TIME ( #187, #78 ) ;
#126 = FACE_OUTER_BOUND ( 'NONE', #84, .T. ) ;
#127 = PLANE ( 'NONE',  #52 ) ;
#128 = EDGE_CURVE ( 'NONE', #170, #39, #29, .T. ) ;
#129 = DIRECTION ( 'NONE',  ( 0.0000000000000000000, 1.000000000000000000, 0.0000000000000000000 ) ) ;
#130 = DATE_AND_TIME ( #181, #139 ) ;
#131 = EDGE_CURVE ( 'NONE', #39, #13, #61, .T. ) ;
#132 = APPROVAL_PERSON_ORGANIZATION ( #156, #178, #231 ) ;
#133 = ORIENTED_EDGE ( 'NONE', *, *, #128, .F. ) ;
#134 = APPROVAL_PERSON_ORGANIZATION ( #146, #30, #201 ) ;
#135 = EDGE_CURVE ( 'NONE', #39, #59, #37, .T. ) ;
#136 = CARTESIAN_POINT ( 'NONE',  ( -25.50000000000000700, 38.00000000000000700, 1.500000000000000000 ) ) ;
#137 = VERTEX_POINT ( 'NONE', #107 ) ;
#138 = CARTESIAN_POINT ( 'NONE',  ( -25.50000000000000700, 38.00000000000000700, 1.500000000000000000 ) ) ;
#139 = LOCAL_TIME ( 14, 14, 7.000000000000000000, #204 ) ;
#140 = CALENDAR_DATE ( 2017, 10, 4 ) ;
#141 = DIRECTION ( 'NONE',  ( -0.0000000000000000000, 0.0000000000000000000, 1.000000000000000000 ) ) ;
#142 = ORIENTED_EDGE ( 'NONE', *, *, #147, .F. ) ;
#143 = MECHANICAL_CONTEXT ( 'NONE', #83, 'mechanical' ) ;
#144 = FACE_OUTER_BOUND ( 'NONE', #145, .T. ) ;
#145 = EDGE_LOOP ( 'NONE', ( #28, #208, #87, #24 ) ) ;
#146 = PERSON_AND_ORGANIZATION ( #33, #163 ) ;
#147 = EDGE_CURVE ( 'NONE', #137, #59, #157, .T. ) ;
#148 = APPROVAL ( #21, 'UNSPECIFIED' ) ;
#149 = DIRECTION ( 'NONE',  ( 1.000000000000000000, 0.0000000000000000000, 0.0000000000000000000 ) ) ;
#150 = DIRECTION ( 'NONE',  ( -1.369518533665900300E-016, 1.000000000000000000, -0.0000000000000000000 ) ) ;
#151 = EDGE_CURVE ( 'NONE', #59, #35, #36, .T. ) ;
#152 = PERSON_AND_ORGANIZATION_ROLE ( 'classification_officer' ) ;
#153 = APPROVAL_DATE_TIME ( #130, #30 ) ;
#154 = PRODUCT_DEFINITION ( 'UNKNOWN', '', #191, #237 ) ;
#155 = CARTESIAN_POINT ( 'NONE',  ( -25.50000000000000700, 38.00000000000000700, 1.500000000000000000 ) ) ;
#156 = PERSON_AND_ORGANIZATION ( #33, #163 ) ;
#157 = LINE ( 'NONE', #123, #161 ) ;
#158 = EDGE_CURVE ( 'NONE', #13, #209, #50, .T. ) ;
#159 = CARTESIAN_POINT ( 'NONE',  ( -25.50000000000000000, -37.99999999999999300, 1.500000000000000000 ) ) ;
#160 = PERSON_AND_ORGANIZATION ( #33, #163 ) ;
#161 = VECTOR ( 'NONE', #223, 1000.000000000000000 ) ;
#162 = PERSON_AND_ORGANIZATION ( #33, #163 ) ;
#163 = ORGANIZATION ( 'UNSPECIFIED', 'UNSPECIFIED', '' ) ;
#164 = CC_DESIGN_PERSON_AND_ORGANIZATION_ASSIGNMENT ( #91, #47, ( #154 ) ) ;
#165 = PERSON_AND_ORGANIZATION_ROLE ( 'creator' ) ;
#166 = DIRECTION ( 'NONE',  ( 1.369518533665900100E-016, -1.000000000000000000, 0.0000000000000000000 ) ) ;
#167 = PERSON_AND_ORGANIZATION ( #33, #163 ) ;
#168 = CARTESIAN_POINT ( 'NONE',  ( 25.49999999999998600, 38.00000000000000700, 1.500000000000000000 ) ) ;
#169 = CC_DESIGN_SECURITY_CLASSIFICATION ( #70, ( #191 ) ) ;
#170 = VERTEX_POINT ( 'NONE', #109 ) ;
#171 = FACE_OUTER_BOUND ( 'NONE', #8, .T. ) ;
#172 = FACE_OUTER_BOUND ( 'NONE', #68, .T. ) ;
#173 = CARTESIAN_POINT ( 'NONE',  ( -25.50000000000000700, 38.00000000000000700, 1.500000000000000000 ) ) ;
#174 =( LENGTH_UNIT ( ) NAMED_UNIT ( * ) SI_UNIT ( .MILLI., .METRE. ) );
#175 = DIRECTION ( 'NONE',  ( -1.369518533665900100E-016, 1.000000000000000000, 0.0000000000000000000 ) ) ;
#176 = AXIS2_PLACEMENT_3D ( 'NONE', #12, #214, #166 ) ;
#177 = ORIENTED_EDGE ( 'NONE', *, *, #58, .F. ) ;
#178 = APPROVAL ( #41, 'UNSPECIFIED' ) ;
#179 = LINE ( 'NONE', #155, #75 ) ;
#180 = COORDINATED_UNIVERSAL_TIME_OFFSET ( 5, 0, .BEHIND. ) ;
#181 = CALENDAR_DATE ( 2017, 10, 4 ) ;
#182 = EDGE_CURVE ( 'NONE', #209, #88, #2, .T. ) ;
#183 = AXIS2_PLACEMENT_3D ( 'NONE', #92, #15, #149 ) ;
#184 = ORIENTED_EDGE ( 'NONE', *, *, #158, .T. ) ;
#185 = VECTOR ( 'NONE', #188, 1000.000000000000000 ) ;
#186 = CC_DESIGN_DATE_AND_TIME_ASSIGNMENT ( #125, #7, ( #70 ) ) ;
#187 = CALENDAR_DATE ( 2017, 10, 4 ) ;
#188 = DIRECTION ( 'NONE',  ( 1.000000000000000000, 0.0000000000000000000, 0.0000000000000000000 ) ) ;
#189 = ORIENTED_EDGE ( 'NONE', *, *, #151, .F. ) ;
#190 = CARTESIAN_POINT ( 'NONE',  ( 0.0000000000000000000, 0.0000000000000000000, -1.500000000000000000 ) ) ;
#191 = PRODUCT_DEFINITION_FORMATION_WITH_SPECIFIED_SOURCE ( 'ANY', '', #66, .NOT_KNOWN. ) ;
#192 = PERSON_AND_ORGANIZATION_ROLE ( 'design_supplier' ) ;
#193 = DIRECTION ( 'NONE',  ( 1.000000000000000000, 0.0000000000000000000, 0.0000000000000000000 ) ) ;
#194 = ORIENTED_EDGE ( 'NONE', *, *, #182, .F. ) ;
#195 = DIRECTION ( 'NONE',  ( -0.0000000000000000000, -0.0000000000000000000, -1.000000000000000000 ) ) ;
#196 = ADVANCED_FACE ( 'NONE', ( #42 ), #210, .T. ) ;
#197 = DIRECTION ( 'NONE',  ( -0.0000000000000000000, -0.0000000000000000000, -1.000000000000000000 ) ) ;
#198 = APPROVAL_PERSON_ORGANIZATION ( #162, #148, #118 ) ;
#199 = PLANE ( 'NONE',  #106 ) ;
#200 = CC_DESIGN_DATE_AND_TIME_ASSIGNMENT ( #86, #9, ( #154 ) ) ;
#201 = APPROVAL_ROLE ( '' ) ;
#202 = ORIENTED_EDGE ( 'NONE', *, *, #158, .F. ) ;
#203 = CARTESIAN_POINT ( 'NONE',  ( -25.50000000000000000, -37.99999999999999300, -1.500000000000000000 ) ) ;
#204 = COORDINATED_UNIVERSAL_TIME_OFFSET ( 5, 0, .BEHIND. ) ;
#205 = AXIS2_PLACEMENT_3D ( 'NONE', #207, #63, #119 ) ;
#206 = CC_DESIGN_PERSON_AND_ORGANIZATION_ASSIGNMENT ( #167, #192, ( #191 ) ) ;
#207 = CARTESIAN_POINT ( 'NONE',  ( 0.0000000000000000000, 0.0000000000000000000, 0.0000000000000000000 ) ) ;
#208 = ORIENTED_EDGE ( 'NONE', *, *, #64, .F. ) ;
#209 = VERTEX_POINT ( 'NONE', #159 ) ;
#210 = PLANE ( 'NONE',  #183 ) ;
#211 = DIRECTION ( 'NONE',  ( 1.369518533665900300E-016, -1.000000000000000000, 0.0000000000000000000 ) ) ;
#212 = FACE_OUTER_BOUND ( 'NONE', #224, .T. ) ;
#213 = EDGE_CURVE ( 'NONE', #35, #88, #234, .T. ) ;
#214 = DIRECTION ( 'NONE',  ( -1.000000000000000000, -1.369518533665900100E-016, 0.0000000000000000000 ) ) ;
#215 = AXIS2_PLACEMENT_3D ( 'NONE', #102, #60, #43 ) ;
#216 = SHAPE_DEFINITION_REPRESENTATION ( #77, #120 ) ;
#217 = DATE_AND_TIME ( #140, #111 ) ;
#218 = EDGE_CURVE ( 'NONE', #13, #35, #179, .T. ) ;
#219 =( GEOMETRIC_REPRESENTATION_CONTEXT ( 3 ) GLOBAL_UNCERTAINTY_ASSIGNED_CONTEXT ( ( #221 ) ) GLOBAL_UNIT_ASSIGNED_CONTEXT ( ( #174, #99, #98 ) ) REPRESENTATION_CONTEXT ( 'NONE', 'WORKASPACE' ) );
#220 = PLANE ( 'NONE',  #176 ) ;
#221 = UNCERTAINTY_MEASURE_WITH_UNIT (LENGTH_MEASURE( 1.000000000000000100E-005 ), #174, 'distance_accuracy_value', 'NONE');
#222 = ORIENTED_EDGE ( 'NONE', *, *, #147, .T. ) ;
#223 = DIRECTION ( 'NONE',  ( -1.369518533665900300E-016, 1.000000000000000000, -0.0000000000000000000 ) ) ;
#224 = EDGE_LOOP ( 'NONE', ( #5, #16, #38, #44 ) ) ;
#225 = DIRECTION ( 'NONE',  ( 1.000000000000000000, 0.0000000000000000000, 0.0000000000000000000 ) ) ;
#226 = VECTOR ( 'NONE', #150, 1000.000000000000000 ) ;
#227 = CLOSED_SHELL ( 'NONE', ( #23, #89, #25, #108, #196, #1 ) ) ;
#228 = APPROVAL_STATUS ( 'not_yet_approved' ) ;
#229 = SECURITY_CLASSIFICATION_LEVEL ( 'unclassified' ) ;
#230 = CC_DESIGN_APPROVAL ( #30, ( #154 ) ) ;
#231 = APPROVAL_ROLE ( '' ) ;
#232 = APPROVAL_DATE_TIME ( #122, #178 ) ;
#233 = AXIS2_PLACEMENT_3D ( 'NONE', #136, #110, #175 ) ;
#234 = LINE ( 'NONE', #26, #54 ) ;
#235 = APPLICATION_PROTOCOL_DEFINITION ( 'international standard', 'config_control_design', 1994, #20 ) ;
#236 = ORIENTED_EDGE ( 'NONE', *, *, #213, .T. ) ;
#237 = DESIGN_CONTEXT ( 'detailed design', #20, 'design' ) ;
ENDSEC;
END-ISO-10303-21;
