ISO-10303-21;
HEADER;
FILE_DESCRIPTION (( 'STEP AP214' ),
    '1' );
FILE_NAME ('5449-E0W.STEP',
    '2009-12-23T16:29:42',
    ( 'Admin' ),
    ( 'Thorlabs, Inc.' ),
    'SwSTEP 2.0',
    'SolidWorks 2009',
    '' );
FILE_SCHEMA (( 'AUTOMOTIVE_DESIGN' ));
ENDSEC;

DATA;
#1 = VECTOR ( 'NONE', #2, 39.37007874015748100 ) ;
#2 = DIRECTION ( 'NONE',  ( -0.0000000000000000000, -0.0000000000000000000, 1.000000000000000000 ) ) ;
#3 = ORIENTED_EDGE ( 'NONE', *, *, #4, .T. ) ;
#4 = EDGE_CURVE ( 'NONE', #29, #5, #31, .T. ) ;
#5 = VERTEX_POINT ( 'NONE', #63 ) ;
#6 = MANIFOLD_SOLID_BREP ( 'NONE', #47 ) ;
#7 = ADVANCED_FACE ( 'NONE', ( #135 ), #248, .T. ) ;
#8 = EDGE_LOOP ( 'NONE', ( #26, #3, #23, #16, #19 ) ) ;
#9 = ORIENTED_EDGE ( 'NONE', *, *, #10, .F. ) ;
#10 = EDGE_CURVE ( 'NONE', #11, #25, #247, .T. ) ;
#11 = VERTEX_POINT ( 'NONE', #238 ) ;
#12 = VERTEX_POINT ( 'NONE', #237 ) ;
#13 = ORIENTED_EDGE ( 'NONE', *, *, #14, .T. ) ;
#14 = EDGE_CURVE ( 'NONE', #11, #12, #123, .T. ) ;
#15 = EDGE_LOOP ( 'NONE', ( #36, #55, #50, #51 ) ) ;
#16 = ORIENTED_EDGE ( 'NONE', *, *, #17, .F. ) ;
#17 = EDGE_CURVE ( 'NONE', #18, #25, #119, .T. ) ;
#18 = VERTEX_POINT ( 'NONE', #114 ) ;
#19 = ORIENTED_EDGE ( 'NONE', *, *, #20, .F. ) ;
#20 = EDGE_CURVE ( 'NONE', #28, #18, #112, .T. ) ;
#21 = ADVANCED_FACE ( 'NONE', ( #108 ), #203, .F. ) ;
#22 = EDGE_LOOP ( 'NONE', ( #9, #13, #48, #56 ) ) ;
#23 = ORIENTED_EDGE ( 'NONE', *, *, #24, .F. ) ;
#24 = EDGE_CURVE ( 'NONE', #25, #5, #202, .T. ) ;
#25 = VERTEX_POINT ( 'NONE', #193 ) ;
#26 = ORIENTED_EDGE ( 'NONE', *, *, #27, .T. ) ;
#27 = EDGE_CURVE ( 'NONE', #28, #29, #192, .T. ) ;
#28 = VERTEX_POINT ( 'NONE', #187 ) ;
#29 = VERTEX_POINT ( 'NONE', #186 ) ;
#30 = CARTESIAN_POINT ( 'NONE',  ( -0.1181102362204724300, 1.446385457270524200E-017, 0.3550060342688710600 ) ) ;
#31 = LINE ( 'NONE', #30, #1 ) ;
#32 = SURFACE_STYLE_FILL_AREA ( #33 ) ;
#33 = FILL_AREA_STYLE ('',( #34 ) ) ;
#34 = FILL_AREA_STYLE_COLOUR ( '', #35 ) ;
#35 = COLOUR_RGB ( '',0.7529411764705882200, 0.7529411764705882200, 0.7529411764705882200 ) ;
#36 = ORIENTED_EDGE ( 'NONE', *, *, #14, .F. ) ;
#37 = ORIENTED_EDGE ( 'NONE', *, *, #27, .F. ) ;
#38 = ORIENTED_EDGE ( 'NONE', *, *, #39, .F. ) ;
#39 = EDGE_CURVE ( 'NONE', #29, #28, #184, .T. ) ;
#40 = ADVANCED_FACE ( 'NONE', ( #179 ), #233, .T. ) ;
#41 = EDGE_LOOP ( 'NONE', ( #42, #43, #44, #45, #46 ) ) ;
#42 = ORIENTED_EDGE ( 'NONE', *, *, #4, .F. ) ;
#43 = ORIENTED_EDGE ( 'NONE', *, *, #39, .T. ) ;
#44 = ORIENTED_EDGE ( 'NONE', *, *, #20, .T. ) ;
#45 = ORIENTED_EDGE ( 'NONE', *, *, #49, .F. ) ;
#46 = ORIENTED_EDGE ( 'NONE', *, *, #52, .F. ) ;
#47 = CLOSED_SHELL ( 'NONE', ( #7, #21, #57, #53, #40 ) ) ;
#48 = ORIENTED_EDGE ( 'NONE', *, *, #49, .T. ) ;
#49 = EDGE_CURVE ( 'NONE', #12, #18, #232, .T. ) ;
#50 = ORIENTED_EDGE ( 'NONE', *, *, #24, .T. ) ;
#51 = ORIENTED_EDGE ( 'NONE', *, *, #52, .T. ) ;
#52 = EDGE_CURVE ( 'NONE', #5, #12, #222, .T. ) ;
#53 = ADVANCED_FACE ( 'NONE', ( #217 ), #147, .F. ) ;
#54 = EDGE_LOOP ( 'NONE', ( #37, #38 ) ) ;
#55 = ORIENTED_EDGE ( 'NONE', *, *, #10, .T. ) ;
#56 = ORIENTED_EDGE ( 'NONE', *, *, #17, .T. ) ;
#57 = ADVANCED_FACE ( 'NONE', ( #146 ), #158, .F. ) ;
#58 = UNCERTAINTY_MEASURE_WITH_UNIT (LENGTH_MEASURE( 1.000000000000000100E-005 ), #61, 'distance_accuracy_value', 'NONE');
#59 =( NAMED_UNIT ( * ) SI_UNIT ( $, .STERADIAN. ) SOLID_ANGLE_UNIT ( ) );
#60 =( NAMED_UNIT ( * ) PLANE_ANGLE_UNIT ( ) SI_UNIT ( $, .RADIAN. ) );
#61 =( CONVERSION_BASED_UNIT ( 'INCH', #153 ) LENGTH_UNIT ( ) NAMED_UNIT ( #154 ) );
#62 = FILL_AREA_STYLE_COLOUR ( '', #235 ) ;
#63 = CARTESIAN_POINT ( 'NONE',  ( -0.1181102362204724100, 1.446385457270524200E-017, 0.07248219052450259600 ) ) ;
#64 = UNCERTAINTY_MEASURE_WITH_UNIT (LENGTH_MEASURE( 1.000000000000000100E-005 ), #67, 'distance_accuracy_value', 'NONE');
#65 =( NAMED_UNIT ( * ) SI_UNIT ( $, .STERADIAN. ) SOLID_ANGLE_UNIT ( ) );
#66 =( NAMED_UNIT ( * ) PLANE_ANGLE_UNIT ( ) SI_UNIT ( $, .RADIAN. ) );
#67 =( CONVERSION_BASED_UNIT ( 'INCH', #68 ) LENGTH_UNIT ( ) NAMED_UNIT ( #69 ) );
#68 = LENGTH_MEASURE_WITH_UNIT ( LENGTH_MEASURE( 0.02539999999999999900 ), #70 );
#69 = DIMENSIONAL_EXPONENTS ( 1.000000000000000000, 0.0000000000000000000, 0.0000000000000000000, 0.0000000000000000000, 0.0000000000000000000, 0.0000000000000000000, 0.0000000000000000000 ) ;
#70 =( LENGTH_UNIT ( ) NAMED_UNIT ( * ) SI_UNIT ( $, .METRE. ) );
#71 = DIRECTION ( 'NONE',  ( 0.0000000000000000000, 1.000000000000000000, 0.0000000000000000000 ) ) ;
#72 = DIRECTION ( 'NONE',  ( -1.000000000000000000, 0.0000000000000000000, 0.0000000000000000000 ) ) ;
#73 = CARTESIAN_POINT ( 'NONE',  ( 0.0000000000000000000, 0.0000000000000000000, 0.2133858267716535200 ) ) ;
#74 = UNCERTAINTY_MEASURE_WITH_UNIT (LENGTH_MEASURE( 1.000000000000000100E-005 ), #77, 'distance_accuracy_value', 'NONE');
#75 =( NAMED_UNIT ( * ) SI_UNIT ( $, .STERADIAN. ) SOLID_ANGLE_UNIT ( ) );
#76 =( NAMED_UNIT ( * ) PLANE_ANGLE_UNIT ( ) SI_UNIT ( $, .RADIAN. ) );
#77 =( CONVERSION_BASED_UNIT ( 'INCH', #78 ) LENGTH_UNIT ( ) NAMED_UNIT ( #79 ) );
#78 = LENGTH_MEASURE_WITH_UNIT ( LENGTH_MEASURE( 0.02539999999999999900 ), #80 );
#79 = DIMENSIONAL_EXPONENTS ( 1.000000000000000000, 0.0000000000000000000, 0.0000000000000000000, 0.0000000000000000000, 0.0000000000000000000, 0.0000000000000000000, 0.0000000000000000000 ) ;
#80 =( LENGTH_UNIT ( ) NAMED_UNIT ( * ) SI_UNIT ( $, .METRE. ) );
#81 = MECHANICAL_DESIGN_GEOMETRIC_PRESENTATION_REPRESENTATION (  '', ( #172 ), #234 ) ;
#82 = PRESENTATION_LAYER_ASSIGNMENT (  '', '', ( #172 ) ) ;
#83 = ADVANCED_BREP_SHAPE_REPRESENTATION ( '5449-E0W', ( #6, #257 ), #84 ) ;
#84 =( GEOMETRIC_REPRESENTATION_CONTEXT ( 3 ) GLOBAL_UNCERTAINTY_ASSIGNED_CONTEXT ( ( #64 ) ) GLOBAL_UNIT_ASSIGNED_CONTEXT ( ( #67, #66, #65 ) ) REPRESENTATION_CONTEXT ( 'NONE', 'WORKASPACE' ) );
#85 = PRESENTATION_LAYER_ASSIGNMENT (  '', '', ( #86 ) ) ;
#86 = STYLED_ITEM ( 'NONE', ( #87 ), #6 ) ;
#87 = PRESENTATION_STYLE_ASSIGNMENT (( #88 ) ) ;
#88 = SURFACE_STYLE_USAGE ( .BOTH. , #89 ) ;
#89 = SURFACE_SIDE_STYLE ('',( #90 ) ) ;
#90 = SURFACE_STYLE_FILL_AREA ( #91 ) ;
#91 = FILL_AREA_STYLE ('',( #62 ) ) ;
#92 = UNCERTAINTY_MEASURE_WITH_UNIT (LENGTH_MEASURE( 1.000000000000000100E-005 ), #95, 'distance_accuracy_value', 'NONE');
#93 =( NAMED_UNIT ( * ) SI_UNIT ( $, .STERADIAN. ) SOLID_ANGLE_UNIT ( ) );
#94 =( NAMED_UNIT ( * ) PLANE_ANGLE_UNIT ( ) SI_UNIT ( $, .RADIAN. ) );
#95 =( CONVERSION_BASED_UNIT ( 'INCH', #96 ) LENGTH_UNIT ( ) NAMED_UNIT ( #97 ) );
#96 = LENGTH_MEASURE_WITH_UNIT ( LENGTH_MEASURE( 0.02539999999999999900 ), #98 );
#97 = DIMENSIONAL_EXPONENTS ( 1.000000000000000000, 0.0000000000000000000, 0.0000000000000000000, 0.0000000000000000000, 0.0000000000000000000, 0.0000000000000000000, 0.0000000000000000000 ) ;
#98 =( LENGTH_UNIT ( ) NAMED_UNIT ( * ) SI_UNIT ( $, .METRE. ) );
#99 = MECHANICAL_DESIGN_GEOMETRIC_PRESENTATION_REPRESENTATION (  '', ( #101 ), #204 ) ;
#100 = PRESENTATION_LAYER_ASSIGNMENT (  '', '', ( #101 ) ) ;
#101 = STYLED_ITEM ( 'NONE', ( #102 ), #21 ) ;
#102 = PRESENTATION_STYLE_ASSIGNMENT (( #103 ) ) ;
#103 = SURFACE_STYLE_USAGE ( .BOTH. , #104 ) ;
#104 = SURFACE_SIDE_STYLE ('',( #105 ) ) ;
#105 = SURFACE_STYLE_FILL_AREA ( #106 ) ;
#106 = FILL_AREA_STYLE ('',( #113 ) ) ;
#107 = COLOUR_RGB ( '',1.000000000000000000, 1.000000000000000000, 1.000000000000000000 ) ;
#108 = FACE_OUTER_BOUND ( 'NONE', #22, .T. ) ;
#109 = DIRECTION ( 'NONE',  ( -0.0000000000000000000, -0.0000000000000000000, 1.000000000000000000 ) ) ;
#110 = VECTOR ( 'NONE', #109, 39.37007874015748100 ) ;
#111 = CARTESIAN_POINT ( 'NONE',  ( 0.1181102362204724300, 0.0000000000000000000, 0.3550060342688710600 ) ) ;
#112 = LINE ( 'NONE', #111, #110 ) ;
#113 = FILL_AREA_STYLE_COLOUR ( '', #107 ) ;
#114 = CARTESIAN_POINT ( 'NONE',  ( 0.1181102362204724100, 0.0000000000000000000, 0.07248219052450259600 ) ) ;
#115 = DIRECTION ( 'NONE',  ( 1.000000000000000000, 0.0000000000000000000, 0.0000000000000000000 ) ) ;
#116 = DIRECTION ( 'NONE',  ( -0.0000000000000000000, -0.0000000000000000000, 1.000000000000000000 ) ) ;
#117 = CARTESIAN_POINT ( 'NONE',  ( 0.0000000000000000000, 0.0000000000000000000, 0.07248219052450259600 ) ) ;
#118 = AXIS2_PLACEMENT_3D ( 'NONE', #117, #116, #115 ) ;
#119 = CIRCLE ( 'NONE', #118, 0.1181102362204724100 ) ;
#120 = DIRECTION ( 'NONE',  ( -1.224606353822377000E-016, -1.000000000000000000, 0.0000000000000000000 ) ) ;
#121 = DIRECTION ( 'NONE',  ( -1.000000000000000000, 1.224606353822377300E-016, 0.0000000000000000000 ) ) ;
#122 = AXIS2_PLACEMENT_3D ( 'NONE', #236, #121, #120 ) ;
#123 = CIRCLE ( 'NONE', #122, 0.1838582677165354300 ) ;
#124 =( LENGTH_UNIT ( ) NAMED_UNIT ( * ) SI_UNIT ( $, .METRE. ) );
#125 = MECHANICAL_DESIGN_GEOMETRIC_PRESENTATION_REPRESENTATION (  '', ( #127 ), #249 ) ;
#126 = PRESENTATION_LAYER_ASSIGNMENT (  '', '', ( #127 ) ) ;
#127 = STYLED_ITEM ( 'NONE', ( #128 ), #7 ) ;
#128 = PRESENTATION_STYLE_ASSIGNMENT (( #129 ) ) ;
#129 = SURFACE_STYLE_USAGE ( .BOTH. , #130 ) ;
#130 = SURFACE_SIDE_STYLE ('',( #131 ) ) ;
#131 = SURFACE_STYLE_FILL_AREA ( #132 ) ;
#132 = FILL_AREA_STYLE ('',( #133 ) ) ;
#133 = FILL_AREA_STYLE_COLOUR ( '', #134 ) ;
#134 = COLOUR_RGB ( '',1.000000000000000000, 1.000000000000000000, 1.000000000000000000 ) ;
#135 = FACE_OUTER_BOUND ( 'NONE', #8, .T. ) ;
#136 =( GEOMETRIC_REPRESENTATION_CONTEXT ( 3 ) GLOBAL_UNCERTAINTY_ASSIGNED_CONTEXT ( ( #58 ) ) GLOBAL_UNIT_ASSIGNED_CONTEXT ( ( #61, #60, #59 ) ) REPRESENTATION_CONTEXT ( 'NONE', 'WORKASPACE' ) );
#137 = SURFACE_SIDE_STYLE ('',( #138 ) ) ;
#138 = SURFACE_STYLE_FILL_AREA ( #139 ) ;
#139 = FILL_AREA_STYLE ('',( #140 ) ) ;
#140 = FILL_AREA_STYLE_COLOUR ( '', #145 ) ;
#141 = DIRECTION ( 'NONE',  ( 1.000000000000000000, 0.0000000000000000000, 0.0000000000000000000 ) ) ;
#142 = DIRECTION ( 'NONE',  ( 0.0000000000000000000, -0.0000000000000000000, 1.000000000000000000 ) ) ;
#143 = CARTESIAN_POINT ( 'NONE',  ( 0.0000000000000000000, 1.084824920504545000E-017, -0.02952755905511811300 ) ) ;
#144 = AXIS2_PLACEMENT_3D ( 'NONE', #143, #142, #141 ) ;
#145 = COLOUR_RGB ( '',1.000000000000000000, 1.000000000000000000, 1.000000000000000000 ) ;
#146 = FACE_OUTER_BOUND ( 'NONE', #15, .T. ) ;
#147 = PLANE ( 'NONE',  #144 ) ;
#148 =( GEOMETRIC_REPRESENTATION_CONTEXT ( 3 ) GLOBAL_UNCERTAINTY_ASSIGNED_CONTEXT ( ( #149 ) ) GLOBAL_UNIT_ASSIGNED_CONTEXT ( ( #152, #151, #150 ) ) REPRESENTATION_CONTEXT ( 'NONE', 'WORKASPACE' ) );
#149 = UNCERTAINTY_MEASURE_WITH_UNIT (LENGTH_MEASURE( 1.000000000000000100E-005 ), #152, 'distance_accuracy_value', 'NONE');
#150 =( NAMED_UNIT ( * ) SI_UNIT ( $, .STERADIAN. ) SOLID_ANGLE_UNIT ( ) );
#151 =( NAMED_UNIT ( * ) PLANE_ANGLE_UNIT ( ) SI_UNIT ( $, .RADIAN. ) );
#152 =( CONVERSION_BASED_UNIT ( 'INCH', #205 ) LENGTH_UNIT ( ) NAMED_UNIT ( #206 ) );
#153 = LENGTH_MEASURE_WITH_UNIT ( LENGTH_MEASURE( 0.02539999999999999900 ), #155 );
#154 = DIMENSIONAL_EXPONENTS ( 1.000000000000000000, 0.0000000000000000000, 0.0000000000000000000, 0.0000000000000000000, 0.0000000000000000000, 0.0000000000000000000, 0.0000000000000000000 ) ;
#155 =( LENGTH_UNIT ( ) NAMED_UNIT ( * ) SI_UNIT ( $, .METRE. ) );
#156 = MECHANICAL_DESIGN_GEOMETRIC_PRESENTATION_REPRESENTATION (  '', ( #86 ), #136 ) ;
#157 = AXIS2_PLACEMENT_3D ( 'NONE', #73, #72, #71 ) ;
#158 = SPHERICAL_SURFACE ( 'NONE', #157, 0.1838582677165354300 ) ;
#159 =( GEOMETRIC_REPRESENTATION_CONTEXT ( 3 ) GLOBAL_UNCERTAINTY_ASSIGNED_CONTEXT ( ( #160 ) ) GLOBAL_UNIT_ASSIGNED_CONTEXT ( ( #163, #162, #161 ) ) REPRESENTATION_CONTEXT ( 'NONE', 'WORKASPACE' ) );
#160 = UNCERTAINTY_MEASURE_WITH_UNIT (LENGTH_MEASURE( 1.000000000000000100E-005 ), #163, 'distance_accuracy_value', 'NONE');
#161 =( NAMED_UNIT ( * ) SI_UNIT ( $, .STERADIAN. ) SOLID_ANGLE_UNIT ( ) );
#162 =( NAMED_UNIT ( * ) PLANE_ANGLE_UNIT ( ) SI_UNIT ( $, .RADIAN. ) );
#163 =( CONVERSION_BASED_UNIT ( 'INCH', #164 ) LENGTH_UNIT ( ) NAMED_UNIT ( #165 ) );
#164 = LENGTH_MEASURE_WITH_UNIT ( LENGTH_MEASURE( 0.02539999999999999900 ), #166 );
#165 = DIMENSIONAL_EXPONENTS ( 1.000000000000000000, 0.0000000000000000000, 0.0000000000000000000, 0.0000000000000000000, 0.0000000000000000000, 0.0000000000000000000, 0.0000000000000000000 ) ;
#166 =( LENGTH_UNIT ( ) NAMED_UNIT ( * ) SI_UNIT ( $, .METRE. ) );
#167 = MECHANICAL_DESIGN_GEOMETRIC_PRESENTATION_REPRESENTATION (  '', ( #169 ), #159 ) ;
#168 = PRESENTATION_LAYER_ASSIGNMENT (  '', '', ( #169 ) ) ;
#169 = STYLED_ITEM ( 'NONE', ( #170 ), #57 ) ;
#170 = PRESENTATION_STYLE_ASSIGNMENT (( #171 ) ) ;
#171 = SURFACE_STYLE_USAGE ( .BOTH. , #137 ) ;
#172 = STYLED_ITEM ( 'NONE', ( #173 ), #40 ) ;
#173 = PRESENTATION_STYLE_ASSIGNMENT (( #174 ) ) ;
#174 = SURFACE_STYLE_USAGE ( .BOTH. , #175 ) ;
#175 = SURFACE_SIDE_STYLE ('',( #176 ) ) ;
#176 = SURFACE_STYLE_FILL_AREA ( #177 ) ;
#177 = FILL_AREA_STYLE ('',( #185 ) ) ;
#178 = COLOUR_RGB ( '',1.000000000000000000, 1.000000000000000000, 1.000000000000000000 ) ;
#179 = FACE_OUTER_BOUND ( 'NONE', #41, .T. ) ;
#180 = DIRECTION ( 'NONE',  ( 1.000000000000000000, 0.0000000000000000000, 0.0000000000000000000 ) ) ;
#181 = DIRECTION ( 'NONE',  ( -0.0000000000000000000, -0.0000000000000000000, 1.000000000000000000 ) ) ;
#182 = CARTESIAN_POINT ( 'NONE',  ( 0.0000000000000000000, 0.0000000000000000000, -0.02952755905511813800 ) ) ;
#183 = AXIS2_PLACEMENT_3D ( 'NONE', #182, #181, #180 ) ;
#184 = CIRCLE ( 'NONE', #183, 0.1181102362204724500 ) ;
#185 = FILL_AREA_STYLE_COLOUR ( '', #178 ) ;
#186 = CARTESIAN_POINT ( 'NONE',  ( -0.1181102362204724700, 1.446385457270524600E-017, -0.02952755905511813800 ) ) ;
#187 = CARTESIAN_POINT ( 'NONE',  ( 0.1181102362204724500, 0.0000000000000000000, -0.02952755905511813800 ) ) ;
#188 = DIRECTION ( 'NONE',  ( 1.000000000000000000, 0.0000000000000000000, 0.0000000000000000000 ) ) ;
#189 = DIRECTION ( 'NONE',  ( -0.0000000000000000000, -0.0000000000000000000, 1.000000000000000000 ) ) ;
#190 = CARTESIAN_POINT ( 'NONE',  ( 0.0000000000000000000, 0.0000000000000000000, -0.02952755905511813800 ) ) ;
#191 = AXIS2_PLACEMENT_3D ( 'NONE', #190, #189, #188 ) ;
#192 = CIRCLE ( 'NONE', #191, 0.1181102362204724500 ) ;
#193 = CARTESIAN_POINT ( 'NONE',  ( 0.0000000000000000000, 0.1181102362204724100, 0.07248219052450261000 ) ) ;
#194 = DIRECTION ( 'NONE',  ( 1.000000000000000000, 0.0000000000000000000, 0.0000000000000000000 ) ) ;
#195 = DIRECTION ( 'NONE',  ( -0.0000000000000000000, -0.0000000000000000000, 1.000000000000000000 ) ) ;
#196 = CARTESIAN_POINT ( 'NONE',  ( 0.0000000000000000000, 0.0000000000000000000, 0.07248219052450259600 ) ) ;
#197 = AXIS2_PLACEMENT_3D ( 'NONE', #196, #195, #194 ) ;
#198 = DIRECTION ( 'NONE',  ( 0.0000000000000000000, 1.000000000000000000, 0.0000000000000000000 ) ) ;
#199 = DIRECTION ( 'NONE',  ( -1.000000000000000000, 0.0000000000000000000, 0.0000000000000000000 ) ) ;
#200 = CARTESIAN_POINT ( 'NONE',  ( 0.0000000000000000000, 0.0000000000000000000, 0.2133858267716535200 ) ) ;
#201 = AXIS2_PLACEMENT_3D ( 'NONE', #200, #199, #198 ) ;
#202 = CIRCLE ( 'NONE', #197, 0.1181102362204724100 ) ;
#203 = SPHERICAL_SURFACE ( 'NONE', #201, 0.1838582677165354300 ) ;
#204 =( GEOMETRIC_REPRESENTATION_CONTEXT ( 3 ) GLOBAL_UNCERTAINTY_ASSIGNED_CONTEXT ( ( #92 ) ) GLOBAL_UNIT_ASSIGNED_CONTEXT ( ( #95, #94, #93 ) ) REPRESENTATION_CONTEXT ( 'NONE', 'WORKASPACE' ) );
#205 = LENGTH_MEASURE_WITH_UNIT ( LENGTH_MEASURE( 0.02539999999999999900 ), #207 );
#206 = DIMENSIONAL_EXPONENTS ( 1.000000000000000000, 0.0000000000000000000, 0.0000000000000000000, 0.0000000000000000000, 0.0000000000000000000, 0.0000000000000000000, 0.0000000000000000000 ) ;
#207 =( LENGTH_UNIT ( ) NAMED_UNIT ( * ) SI_UNIT ( $, .METRE. ) );
#208 = MECHANICAL_DESIGN_GEOMETRIC_PRESENTATION_REPRESENTATION (  '', ( #210 ), #148 ) ;
#209 = PRESENTATION_LAYER_ASSIGNMENT (  '', '', ( #210 ) ) ;
#210 = STYLED_ITEM ( 'NONE', ( #211 ), #53 ) ;
#211 = PRESENTATION_STYLE_ASSIGNMENT (( #212 ) ) ;
#212 = SURFACE_STYLE_USAGE ( .BOTH. , #213 ) ;
#213 = SURFACE_SIDE_STYLE ('',( #214 ) ) ;
#214 = SURFACE_STYLE_FILL_AREA ( #215 ) ;
#215 = FILL_AREA_STYLE ('',( #223 ) ) ;
#216 = COLOUR_RGB ( '',1.000000000000000000, 1.000000000000000000, 1.000000000000000000 ) ;
#217 = FACE_OUTER_BOUND ( 'NONE', #54, .T. ) ;
#218 = DIRECTION ( 'NONE',  ( 1.000000000000000000, 0.0000000000000000000, 0.0000000000000000000 ) ) ;
#219 = DIRECTION ( 'NONE',  ( -0.0000000000000000000, -0.0000000000000000000, 1.000000000000000000 ) ) ;
#220 = CARTESIAN_POINT ( 'NONE',  ( 0.0000000000000000000, 0.0000000000000000000, 0.07248219052450259600 ) ) ;
#221 = AXIS2_PLACEMENT_3D ( 'NONE', #220, #219, #218 ) ;
#222 = CIRCLE ( 'NONE', #221, 0.1181102362204724100 ) ;
#223 = FILL_AREA_STYLE_COLOUR ( '', #216 ) ;
#224 = DIRECTION ( 'NONE',  ( 1.000000000000000000, 0.0000000000000000000, 0.0000000000000000000 ) ) ;
#225 = DIRECTION ( 'NONE',  ( -0.0000000000000000000, -0.0000000000000000000, 1.000000000000000000 ) ) ;
#226 = CARTESIAN_POINT ( 'NONE',  ( 0.0000000000000000000, 0.0000000000000000000, 0.07248219052450259600 ) ) ;
#227 = AXIS2_PLACEMENT_3D ( 'NONE', #226, #225, #224 ) ;
#228 = DIRECTION ( 'NONE',  ( 1.000000000000000000, 0.0000000000000000000, 0.0000000000000000000 ) ) ;
#229 = DIRECTION ( 'NONE',  ( -0.0000000000000000000, -0.0000000000000000000, 1.000000000000000000 ) ) ;
#230 = CARTESIAN_POINT ( 'NONE',  ( 0.0000000000000000000, 0.0000000000000000000, 0.3550060342688710600 ) ) ;
#231 = AXIS2_PLACEMENT_3D ( 'NONE', #230, #229, #228 ) ;
#232 = CIRCLE ( 'NONE', #227, 0.1181102362204724100 ) ;
#233 = CYLINDRICAL_SURFACE ( 'NONE', #231, 0.1181102362204724300 ) ;
#234 =( GEOMETRIC_REPRESENTATION_CONTEXT ( 3 ) GLOBAL_UNCERTAINTY_ASSIGNED_CONTEXT ( ( #74 ) ) GLOBAL_UNIT_ASSIGNED_CONTEXT ( ( #77, #76, #75 ) ) REPRESENTATION_CONTEXT ( 'NONE', 'WORKASPACE' ) );
#235 = COLOUR_RGB ( '',0.7529411764705882200, 0.7529411764705882200, 0.7529411764705882200 ) ;
#236 = CARTESIAN_POINT ( 'NONE',  ( 0.0000000000000000000, 0.0000000000000000000, 0.2133858267716535200 ) ) ;
#237 = CARTESIAN_POINT ( 'NONE',  ( -1.446385457270523900E-017, -0.1181102362204724100, 0.07248219052450261000 ) ) ;
#238 = CARTESIAN_POINT ( 'NONE',  ( 0.0000000000000000000, 1.125770014242224600E-017, 0.02952755905511810300 ) ) ;
#239 = DIRECTION ( 'NONE',  ( 0.0000000000000000000, 0.0000000000000000000, -1.000000000000000000 ) ) ;
#240 = DIRECTION ( 'NONE',  ( 1.000000000000000000, 0.0000000000000000000, 0.0000000000000000000 ) ) ;
#241 = CARTESIAN_POINT ( 'NONE',  ( 0.0000000000000000000, 0.0000000000000000000, 0.2133858267716535200 ) ) ;
#242 = AXIS2_PLACEMENT_3D ( 'NONE', #241, #240, #239 ) ;
#243 = DIRECTION ( 'NONE',  ( 1.000000000000000000, 0.0000000000000000000, 0.0000000000000000000 ) ) ;
#244 = DIRECTION ( 'NONE',  ( -0.0000000000000000000, -0.0000000000000000000, 1.000000000000000000 ) ) ;
#245 = CARTESIAN_POINT ( 'NONE',  ( 0.0000000000000000000, 0.0000000000000000000, 0.3550060342688710600 ) ) ;
#246 = AXIS2_PLACEMENT_3D ( 'NONE', #245, #244, #243 ) ;
#247 = CIRCLE ( 'NONE', #242, 0.1838582677165354300 ) ;
#248 = CYLINDRICAL_SURFACE ( 'NONE', #246, 0.1181102362204724300 ) ;
#249 =( GEOMETRIC_REPRESENTATION_CONTEXT ( 3 ) GLOBAL_UNCERTAINTY_ASSIGNED_CONTEXT ( ( #250 ) ) GLOBAL_UNIT_ASSIGNED_CONTEXT ( ( #253, #252, #251 ) ) REPRESENTATION_CONTEXT ( 'NONE', 'WORKASPACE' ) );
#250 = UNCERTAINTY_MEASURE_WITH_UNIT (LENGTH_MEASURE( 1.000000000000000100E-005 ), #253, 'distance_accuracy_value', 'NONE');
#251 =( NAMED_UNIT ( * ) SI_UNIT ( $, .STERADIAN. ) SOLID_ANGLE_UNIT ( ) );
#252 =( NAMED_UNIT ( * ) PLANE_ANGLE_UNIT ( ) SI_UNIT ( $, .RADIAN. ) );
#253 =( CONVERSION_BASED_UNIT ( 'INCH', #254 ) LENGTH_UNIT ( ) NAMED_UNIT ( #255 ) );
#254 = LENGTH_MEASURE_WITH_UNIT ( LENGTH_MEASURE( 0.02539999999999999900 ), #124 );
#255 = DIMENSIONAL_EXPONENTS ( 1.000000000000000000, 0.0000000000000000000, 0.0000000000000000000, 0.0000000000000000000, 0.0000000000000000000, 0.0000000000000000000, 0.0000000000000000000 ) ;
#256 = DIRECTION ( 'NONE',  ( 0.0000000000000000000, 0.0000000000000000000, 1.000000000000000000 ) ) ;
#257 = AXIS2_PLACEMENT_3D ( 'NONE', #272, #256, #276 ) ;
#258 =( LENGTH_UNIT ( ) NAMED_UNIT ( * ) SI_UNIT ( $, .METRE. ) );
#259 =( NAMED_UNIT ( * ) SI_UNIT ( $, .STERADIAN. ) SOLID_ANGLE_UNIT ( ) );
#260 = UNCERTAINTY_MEASURE_WITH_UNIT (LENGTH_MEASURE( 1.000000000000000100E-005 ), #262, 'distance_accuracy_value', 'NONE');
#261 = PRESENTATION_LAYER_ASSIGNMENT (  '', '', ( #284 ) ) ;
#262 =( CONVERSION_BASED_UNIT ( 'INCH', #281 ) LENGTH_UNIT ( ) NAMED_UNIT ( #277 ) );
#263 = PRODUCT_RELATED_PRODUCT_CATEGORY ( 'part', '', ( #269 ) ) ;
#264 = PRODUCT_DEFINITION_FORMATION_WITH_SPECIFIED_SOURCE ( 'ANY', '', #269, .NOT_KNOWN. ) ;
#265 = PRODUCT_DEFINITION ( 'UNKNOWN', '', #264, #266 ) ;
#266 = PRODUCT_DEFINITION_CONTEXT ( 'detailed design', #268, 'design' ) ;
#267 = APPLICATION_PROTOCOL_DEFINITION ( 'draft international standard', 'automotive_design', 1998, #268 ) ;
#268 = APPLICATION_CONTEXT ( 'automotive_design' ) ;
#269 = PRODUCT ( '5449-E0W', '5449-E0W', '', ( #270 ) ) ;
#270 = PRODUCT_CONTEXT ( 'NONE', #273, 'mechanical' ) ;
#271 = APPLICATION_PROTOCOL_DEFINITION ( 'draft international standard', 'automotive_design', 1998, #273 ) ;
#272 = CARTESIAN_POINT ( 'NONE',  ( 0.0000000000000000000, 0.0000000000000000000, 0.0000000000000000000 ) ) ;
#273 = APPLICATION_CONTEXT ( 'automotive_design' ) ;
#274 =( GEOMETRIC_REPRESENTATION_CONTEXT ( 3 ) GLOBAL_UNCERTAINTY_ASSIGNED_CONTEXT ( ( #260 ) ) GLOBAL_UNIT_ASSIGNED_CONTEXT ( ( #262, #283, #259 ) ) REPRESENTATION_CONTEXT ( 'NONE', 'WORKASPACE' ) );
#275 = SHAPE_DEFINITION_REPRESENTATION ( #282, #83 ) ;
#276 = DIRECTION ( 'NONE',  ( 1.000000000000000000, 0.0000000000000000000, 0.0000000000000000000 ) ) ;
#277 = DIMENSIONAL_EXPONENTS ( 1.000000000000000000, 0.0000000000000000000, 0.0000000000000000000, 0.0000000000000000000, 0.0000000000000000000, 0.0000000000000000000, 0.0000000000000000000 ) ;
#278 = MECHANICAL_DESIGN_GEOMETRIC_PRESENTATION_REPRESENTATION (  '', ( #284 ), #274 ) ;
#279 = SURFACE_SIDE_STYLE ('',( #32 ) ) ;
#280 = SURFACE_STYLE_USAGE ( .BOTH. , #279 ) ;
#281 = LENGTH_MEASURE_WITH_UNIT ( LENGTH_MEASURE( 0.02539999999999999900 ), #258 );
#282 = PRODUCT_DEFINITION_SHAPE ( 'NONE', 'NONE',  #265 ) ;
#283 =( NAMED_UNIT ( * ) PLANE_ANGLE_UNIT ( ) SI_UNIT ( $, .RADIAN. ) );
#284 = STYLED_ITEM ( 'NONE', ( #285 ), #83 ) ;
#285 = PRESENTATION_STYLE_ASSIGNMENT (( #280 ) ) ;
ENDSEC;
END-ISO-10303-21;
