ISO-10303-21;
HEADER;
FILE_DESCRIPTION (( 'STEP AP203' ),
    '1' );
FILE_NAME ('Web Model 19837_19852.step',
    '2022-04-06T15:02:27',
    ( 'WC' ),
    ( 'Windows Central' ),
    'SwSTEP 2.0',
    'SolidWorks 2021',
    '' );
FILE_SCHEMA (( 'CONFIG_CONTROL_DESIGN' ));
ENDSEC;

DATA;
#1 = DATE_AND_TIME ( #77, #28 ) ;
#2 = EDGE_CURVE ( 'NONE', #12, #100, #91, .T. ) ;
#3 = EDGE_LOOP ( 'NONE', ( #42, #96 ) ) ;
#4 = DIRECTION ( 'NONE',  ( 0.000000000000000000, 0.000000000000000000, 1.000000000000000000 ) ) ;
#5 = EDGE_LOOP ( 'NONE', ( #164, #166, #64, #149 ) ) ;
#6 = DIRECTION ( 'NONE',  ( 0.000000000000000000, 0.000000000000000000, 1.000000000000000000 ) ) ;
#7 = DIRECTION ( 'NONE',  ( -1.000000000000000000, 0.000000000000000000, 0.000000000000000000 ) ) ;
#8 = APPLICATION_PROTOCOL_DEFINITION ( 'international standard', 'config_control_design', 1994, #138 ) ;
#9 = APPROVAL_ROLE ( '' ) ;
#10 = PERSON_AND_ORGANIZATION ( #47, #145 ) ;
#11 = APPROVAL_ROLE ( '' ) ;
#12 = VERTEX_POINT ( 'NONE', #109 ) ;
#13 = CC_DESIGN_SECURITY_CLASSIFICATION ( #167, ( #36 ) ) ;
#14 = APPLICATION_PROTOCOL_DEFINITION ( 'international standard', 'config_control_design', 1994, #73 ) ;
#15 = CC_DESIGN_PERSON_AND_ORGANIZATION_ASSIGNMENT ( #52, #92, ( #167 ) ) ;
#16 = CIRCLE ( 'NONE', #174, 12.50000000000000000 ) ;
#17 = DIRECTION ( 'NONE',  ( 0.000000000000000000, 0.000000000000000000, 1.000000000000000000 ) ) ;
#18 = PLANE ( 'NONE',  #31 ) ;
#19 = FACE_OUTER_BOUND ( 'NONE', #119, .T. ) ;
#20 =( LENGTH_UNIT ( ) NAMED_UNIT ( * ) SI_UNIT ( .MILLI., .METRE. ) );
#21 = PRODUCT_RELATED_PRODUCT_CATEGORY ( 'detail', '', ( #132 ) ) ;
#22 = UNCERTAINTY_MEASURE_WITH_UNIT (LENGTH_MEASURE( 1.000000000000000082E-05 ), #20, 'distance_accuracy_value', 'NONE');
#23 = LOCAL_TIME ( 11, 2, 27.00000000000000000, #79 ) ;
#24 = COORDINATED_UNIVERSAL_TIME_OFFSET ( 5, 0, .BEHIND. ) ;
#25 = AXIS2_PLACEMENT_3D ( 'NONE', #154, #104, #7 ) ;
#26 = DATE_TIME_ROLE ( 'classification_date' ) ;
#27 = APPROVAL_ROLE ( '' ) ;
#28 = LOCAL_TIME ( 11, 2, 27.00000000000000000, #24 ) ;
#29 = CARTESIAN_POINT ( 'NONE',  ( 0.000000000000000000, 0.000000000000000000, 0.000000000000000000 ) ) ;
#30 = DIRECTION ( 'NONE',  ( -0.000000000000000000, -0.000000000000000000, -1.000000000000000000 ) ) ;
#31 = AXIS2_PLACEMENT_3D ( 'NONE', #41, #6, #153 ) ;
#32 = VERTEX_POINT ( 'NONE', #160 ) ;
#33 = DIRECTION ( 'NONE',  ( -1.000000000000000000, 0.000000000000000000, 0.000000000000000000 ) ) ;
#34 = AXIS2_PLACEMENT_3D ( 'NONE', #165, #86, #33 ) ;
#35 = PRODUCT_DEFINITION ( 'UNKNOWN', '', #36, #127 ) ;
#36 = PRODUCT_DEFINITION_FORMATION_WITH_SPECIFIED_SOURCE ( 'ANY', '', #132, .NOT_KNOWN. ) ;
#37 = DATE_AND_TIME ( #133, #155 ) ;
#38 = EDGE_CURVE ( 'NONE', #32, #140, #16, .T. ) ;
#39 = APPROVAL_DATE_TIME ( #78, #61 ) ;
#40 = ORIENTED_EDGE ( 'NONE', *, *, #69, .F. ) ;
#41 = CARTESIAN_POINT ( 'NONE',  ( 0.000000000000000000, 0.000000000000000000, 3.000000000000000000 ) ) ;
#42 = ORIENTED_EDGE ( 'NONE', *, *, #95, .T. ) ;
#43 = FACE_OUTER_BOUND ( 'NONE', #5, .T. ) ;
#44 =( GEOMETRIC_REPRESENTATION_CONTEXT ( 3 ) GLOBAL_UNCERTAINTY_ASSIGNED_CONTEXT ( ( #22 ) ) GLOBAL_UNIT_ASSIGNED_CONTEXT ( ( #20, #143, #46 ) ) REPRESENTATION_CONTEXT ( 'NONE', 'WORKASPACE' ) );
#45 = CC_DESIGN_DATE_AND_TIME_ASSIGNMENT ( #1, #173, ( #35 ) ) ;
#46 =( NAMED_UNIT ( * ) SI_UNIT ( $, .STERADIAN. ) SOLID_ANGLE_UNIT ( ) );
#47 = PERSON ( 'UNSPECIFIED', 'UNSPECIFIED', 'UNSPECIFIED', ('UNSPECIFIED'), ('UNSPECIFIED'), ('UNSPECIFIED') ) ;
#48 = PERSON_AND_ORGANIZATION ( #47, #145 ) ;
#49 = CALENDAR_DATE ( 2022, 6, 4 ) ;
#50 = APPROVAL ( #75, 'UNSPECIFIED' ) ;
#51 = CIRCLE ( 'NONE', #151, 12.50000000000000000 ) ;
#52 = PERSON_AND_ORGANIZATION ( #47, #145 ) ;
#53 = CALENDAR_DATE ( 2022, 6, 4 ) ;
#54 = DIRECTION ( 'NONE',  ( 1.000000000000000000, 0.000000000000000000, 0.000000000000000000 ) ) ;
#55 = MECHANICAL_CONTEXT ( 'NONE', #138, 'mechanical' ) ;
#56 = ORIENTED_EDGE ( 'NONE', *, *, #163, .F. ) ;
#57 = DIRECTION ( 'NONE',  ( 1.000000000000000000, 0.000000000000000000, -0.000000000000000000 ) ) ;
#58 = CARTESIAN_POINT ( 'NONE',  ( -12.50000000000000000, 0.000000000000000000, 0.000000000000000000 ) ) ;
#59 = CLOSED_SHELL ( 'NONE', ( #142, #147, #131, #111 ) ) ;
#60 = SHAPE_DEFINITION_REPRESENTATION ( #65, #89 ) ;
#61 = APPROVAL ( #90, 'UNSPECIFIED' ) ;
#62 = DATE_AND_TIME ( #49, #88 ) ;
#63 = CC_DESIGN_APPROVAL ( #61, ( #36 ) ) ;
#64 = ORIENTED_EDGE ( 'NONE', *, *, #2, .T. ) ;
#65 = PRODUCT_DEFINITION_SHAPE ( 'NONE', 'NONE',  #35 ) ;
#66 = APPROVAL_DATE_TIME ( #110, #81 ) ;
#67 = ORIENTED_EDGE ( 'NONE', *, *, #2, .F. ) ;
#68 = DIRECTION ( 'NONE',  ( -0.000000000000000000, -0.000000000000000000, -1.000000000000000000 ) ) ;
#69 = EDGE_CURVE ( 'NONE', #32, #12, #152, .T. ) ;
#70 = DIRECTION ( 'NONE',  ( 0.000000000000000000, 0.000000000000000000, 1.000000000000000000 ) ) ;
#71 = LOCAL_TIME ( 11, 2, 27.00000000000000000, #135 ) ;
#72 = AXIS2_PLACEMENT_3D ( 'NONE', #84, #4, #57 ) ;
#73 = APPLICATION_CONTEXT ( 'configuration controlled 3d designs of mechanical parts and assemblies' ) ;
#74 = CC_DESIGN_PERSON_AND_ORGANIZATION_ASSIGNMENT ( #130, #108, ( #36 ) ) ;
#75 = APPROVAL_STATUS ( 'not_yet_approved' ) ;
#76 = CIRCLE ( 'NONE', #121, 12.50000000000000000 ) ;
#77 = CALENDAR_DATE ( 2022, 6, 4 ) ;
#78 = DATE_AND_TIME ( #161, #23 ) ;
#79 = COORDINATED_UNIVERSAL_TIME_OFFSET ( 5, 0, .BEHIND. ) ;
#80 = APPROVAL_PERSON_ORGANIZATION ( #172, #50, #11 ) ;
#81 = APPROVAL ( #120, 'UNSPECIFIED' ) ;
#82 = AXIS2_PLACEMENT_3D ( 'NONE', #29, #137, #54 ) ;
#83 = CARTESIAN_POINT ( 'NONE',  ( 0.000000000000000000, 0.000000000000000000, 3.000000000000000000 ) ) ;
#84 = CARTESIAN_POINT ( 'NONE',  ( 0.000000000000000000, 0.000000000000000000, 0.000000000000000000 ) ) ;
#85 = ORIENTED_EDGE ( 'NONE', *, *, #95, .F. ) ;
#86 = DIRECTION ( 'NONE',  ( -0.000000000000000000, -0.000000000000000000, -1.000000000000000000 ) ) ;
#87 = DIRECTION ( 'NONE',  ( 0.000000000000000000, 0.000000000000000000, 1.000000000000000000 ) ) ;
#88 = LOCAL_TIME ( 11, 2, 27.00000000000000000, #159 ) ;
#89 = ADVANCED_BREP_SHAPE_REPRESENTATION ( 'Web Model 19837_19852', ( #136, #170 ), #44 ) ;
#90 = APPROVAL_STATUS ( 'not_yet_approved' ) ;
#91 = CIRCLE ( 'NONE', #82, 12.50000000000000000 ) ;
#92 = PERSON_AND_ORGANIZATION_ROLE ( 'classification_officer' ) ;
#93 = SECURITY_CLASSIFICATION_LEVEL ( 'unclassified' ) ;
#94 = COORDINATED_UNIVERSAL_TIME_OFFSET ( 5, 0, .BEHIND. ) ;
#95 = EDGE_CURVE ( 'NONE', #140, #32, #51, .T. ) ;
#96 = ORIENTED_EDGE ( 'NONE', *, *, #38, .T. ) ;
#97 = CYLINDRICAL_SURFACE ( 'NONE', #34, 12.50000000000000000 ) ;
#98 = ORIENTED_EDGE ( 'NONE', *, *, #163, .T. ) ;
#99 = DIRECTION ( 'NONE',  ( 1.000000000000000000, 0.000000000000000000, 0.000000000000000000 ) ) ;
#100 = VERTEX_POINT ( 'NONE', #58 ) ;
#101 = APPROVAL_PERSON_ORGANIZATION ( #146, #81, #9 ) ;
#102 = EDGE_CURVE ( 'NONE', #140, #100, #141, .T. ) ;
#103 = DIRECTION ( 'NONE',  ( 1.000000000000000000, 0.000000000000000000, 0.000000000000000000 ) ) ;
#104 = DIRECTION ( 'NONE',  ( -0.000000000000000000, -0.000000000000000000, -1.000000000000000000 ) ) ;
#105 = PERSON_AND_ORGANIZATION ( #47, #145 ) ;
#106 = VECTOR ( 'NONE', #68, 1000.000000000000000 ) ;
#107 = APPROVAL_DATE_TIME ( #62, #50 ) ;
#108 = PERSON_AND_ORGANIZATION_ROLE ( 'creator' ) ;
#109 = CARTESIAN_POINT ( 'NONE',  ( 12.50000000000000000, 1.530808498934191521E-15, 0.000000000000000000 ) ) ;
#110 = DATE_AND_TIME ( #53, #71 ) ;
#111 = ADVANCED_FACE ( 'NONE', ( #123 ), #162, .F. ) ;
#112 = CARTESIAN_POINT ( 'NONE',  ( 0.000000000000000000, 0.000000000000000000, 3.000000000000000000 ) ) ;
#113 = DIRECTION ( 'NONE',  ( 1.000000000000000000, 0.000000000000000000, 0.000000000000000000 ) ) ;
#114 = CARTESIAN_POINT ( 'NONE',  ( -12.50000000000000000, 0.000000000000000000, 3.000000000000000000 ) ) ;
#115 = CARTESIAN_POINT ( 'NONE',  ( 12.50000000000000000, 1.530808498934191521E-15, 3.000000000000000000 ) ) ;
#116 = CC_DESIGN_PERSON_AND_ORGANIZATION_ASSIGNMENT ( #10, #118, ( #36 ) ) ;
#117 = PERSON_AND_ORGANIZATION_ROLE ( 'creator' ) ;
#118 = PERSON_AND_ORGANIZATION_ROLE ( 'design_supplier' ) ;
#119 = EDGE_LOOP ( 'NONE', ( #40, #85, #122, #98 ) ) ;
#120 = APPROVAL_STATUS ( 'not_yet_approved' ) ;
#121 = AXIS2_PLACEMENT_3D ( 'NONE', #144, #87, #169 ) ;
#122 = ORIENTED_EDGE ( 'NONE', *, *, #102, .T. ) ;
#123 = FACE_OUTER_BOUND ( 'NONE', #134, .T. ) ;
#124 = CYLINDRICAL_SURFACE ( 'NONE', #25, 12.50000000000000000 ) ;
#125 = CC_DESIGN_APPROVAL ( #50, ( #167 ) ) ;
#126 = CC_DESIGN_DATE_AND_TIME_ASSIGNMENT ( #37, #26, ( #167 ) ) ;
#127 = DESIGN_CONTEXT ( 'detailed design', #73, 'design' ) ;
#128 = DIRECTION ( 'NONE',  ( 0.000000000000000000, 0.000000000000000000, 1.000000000000000000 ) ) ;
#129 = PERSON_AND_ORGANIZATION_ROLE ( 'design_owner' ) ;
#130 = PERSON_AND_ORGANIZATION ( #47, #145 ) ;
#131 = ADVANCED_FACE ( 'NONE', ( #139 ), #18, .T. ) ;
#132 = PRODUCT ( 'Web Model 19837_19852', 'Web Model 19837_19852', '', ( #55 ) ) ;
#133 = CALENDAR_DATE ( 2022, 6, 4 ) ;
#134 = EDGE_LOOP ( 'NONE', ( #56, #67 ) ) ;
#135 = COORDINATED_UNIVERSAL_TIME_OFFSET ( 5, 0, .BEHIND. ) ;
#136 = MANIFOLD_SOLID_BREP ( 'Boss-Extrude1', #59 ) ;
#137 = DIRECTION ( 'NONE',  ( 0.000000000000000000, 0.000000000000000000, 1.000000000000000000 ) ) ;
#138 = APPLICATION_CONTEXT ( 'configuration controlled 3d designs of mechanical parts and assemblies' ) ;
#139 = FACE_OUTER_BOUND ( 'NONE', #3, .T. ) ;
#140 = VERTEX_POINT ( 'NONE', #114 ) ;
#141 = LINE ( 'NONE', #150, #106 ) ;
#142 = ADVANCED_FACE ( 'NONE', ( #43 ), #97, .T. ) ;
#143 =( NAMED_UNIT ( * ) PLANE_ANGLE_UNIT ( ) SI_UNIT ( $, .RADIAN. ) );
#144 = CARTESIAN_POINT ( 'NONE',  ( 0.000000000000000000, 0.000000000000000000, 0.000000000000000000 ) ) ;
#145 = ORGANIZATION ( 'UNSPECIFIED', 'UNSPECIFIED', '' ) ;
#146 = PERSON_AND_ORGANIZATION ( #47, #145 ) ;
#147 = ADVANCED_FACE ( 'NONE', ( #19 ), #124, .T. ) ;
#148 = CC_DESIGN_APPROVAL ( #81, ( #35 ) ) ;
#149 = ORIENTED_EDGE ( 'NONE', *, *, #102, .F. ) ;
#150 = CARTESIAN_POINT ( 'NONE',  ( -12.50000000000000000, 0.000000000000000000, 3.000000000000000000 ) ) ;
#151 = AXIS2_PLACEMENT_3D ( 'NONE', #112, #70, #99 ) ;
#152 = LINE ( 'NONE', #115, #158 ) ;
#153 = DIRECTION ( 'NONE',  ( 1.000000000000000000, 0.000000000000000000, -0.000000000000000000 ) ) ;
#154 = CARTESIAN_POINT ( 'NONE',  ( 0.000000000000000000, 0.000000000000000000, 3.000000000000000000 ) ) ;
#155 = LOCAL_TIME ( 11, 2, 27.00000000000000000, #94 ) ;
#156 = PERSON_AND_ORGANIZATION ( #47, #145 ) ;
#157 = CC_DESIGN_PERSON_AND_ORGANIZATION_ASSIGNMENT ( #48, #129, ( #132 ) ) ;
#158 = VECTOR ( 'NONE', #30, 1000.000000000000000 ) ;
#159 = COORDINATED_UNIVERSAL_TIME_OFFSET ( 5, 0, .BEHIND. ) ;
#160 = CARTESIAN_POINT ( 'NONE',  ( 12.50000000000000000, 1.530808498934191521E-15, 3.000000000000000000 ) ) ;
#161 = CALENDAR_DATE ( 2022, 6, 4 ) ;
#162 = PLANE ( 'NONE',  #72 ) ;
#163 = EDGE_CURVE ( 'NONE', #100, #12, #76, .T. ) ;
#164 = ORIENTED_EDGE ( 'NONE', *, *, #38, .F. ) ;
#165 = CARTESIAN_POINT ( 'NONE',  ( 0.000000000000000000, 0.000000000000000000, 3.000000000000000000 ) ) ;
#166 = ORIENTED_EDGE ( 'NONE', *, *, #69, .T. ) ;
#167 = SECURITY_CLASSIFICATION ( '', '', #93 ) ;
#168 = CARTESIAN_POINT ( 'NONE',  ( 0.000000000000000000, 0.000000000000000000, 0.000000000000000000 ) ) ;
#169 = DIRECTION ( 'NONE',  ( 1.000000000000000000, 0.000000000000000000, 0.000000000000000000 ) ) ;
#170 = AXIS2_PLACEMENT_3D ( 'NONE', #168, #128, #103 ) ;
#171 = CC_DESIGN_PERSON_AND_ORGANIZATION_ASSIGNMENT ( #105, #117, ( #35 ) ) ;
#172 = PERSON_AND_ORGANIZATION ( #47, #145 ) ;
#173 = DATE_TIME_ROLE ( 'creation_date' ) ;
#174 = AXIS2_PLACEMENT_3D ( 'NONE', #83, #17, #113 ) ;
#175 = APPROVAL_PERSON_ORGANIZATION ( #156, #61, #27 ) ;
ENDSEC;
END-ISO-10303-21;
