ISO-10303-21;
HEADER;
FILE_DESCRIPTION (( 'STEP AP203' ),
    '1' );
FILE_NAME ('Web Model 68378.STEP',
    '2017-01-31T19:51:51',
    ( '' ),
    ( '' ),
    'SwSTEP 2.0',
    'SolidWorks 2016',
    '' );
FILE_SCHEMA (( 'CONFIG_CONTROL_DESIGN' ));
ENDSEC;

DATA;
#1 = CARTESIAN_POINT ( 'NONE',  ( -37.50000000000000000, 24.99999999999999300, 3.000000000000000000 ) ) ;
#2 = COORDINATED_UNIVERSAL_TIME_OFFSET ( 5, 0, .BEHIND. ) ;
#3 = DIRECTION ( 'NONE',  ( -0.0000000000000000000, -0.0000000000000000000, -1.000000000000000000 ) ) ;
#4 = VECTOR ( 'NONE', #61, 1000.000000000000000 ) ;
#5 = EDGE_CURVE ( 'NONE', #226, #215, #8, .T. ) ;
#6 = DIRECTION ( 'NONE',  ( 1.000000000000000000, 9.251858538542970300E-017, 0.0000000000000000000 ) ) ;
#7 = COORDINATED_UNIVERSAL_TIME_OFFSET ( 5, 0, .BEHIND. ) ;
#8 = LINE ( 'NONE', #70, #58 ) ;
#9 = ORIENTED_EDGE ( 'NONE', *, *, #41, .T. ) ;
#10 = CARTESIAN_POINT ( 'NONE',  ( -37.50000000000000000, 24.99999999999999300, 3.000000000000000000 ) ) ;
#11 = AXIS2_PLACEMENT_3D ( 'NONE', #227, #140, #30 ) ;
#12 = DIRECTION ( 'NONE',  ( 0.0000000000000000000, 0.0000000000000000000, 1.000000000000000000 ) ) ;
#13 = DATE_AND_TIME ( #54, #96 ) ;
#14 = LINE ( 'NONE', #1, #28 ) ;
#15 = PERSON_AND_ORGANIZATION_ROLE ( 'design_supplier' ) ;
#16 = PERSON_AND_ORGANIZATION_ROLE ( 'creator' ) ;
#17 = EDGE_LOOP ( 'NONE', ( #141, #97, #121, #207 ) ) ;
#18 = EDGE_CURVE ( 'NONE', #235, #190, #14, .T. ) ;
#19 = CALENDAR_DATE ( 2017, 31, 1 ) ;
#20 = APPROVAL_PERSON_ORGANIZATION ( #213, #33, #208 ) ;
#21 = CC_DESIGN_APPROVAL ( #103, ( #233 ) ) ;
#22 = DATE_AND_TIME ( #219, #173 ) ;
#23 = VECTOR ( 'NONE', #152, 1000.000000000000000 ) ;
#24 = EDGE_CURVE ( 'NONE', #114, #226, #32, .T. ) ;
#25 = CARTESIAN_POINT ( 'NONE',  ( -37.50000000000000000, -25.00000000000000700, 3.000000000000000000 ) ) ;
#26 = DATE_AND_TIME ( #19, #161 ) ;
#27 = CARTESIAN_POINT ( 'NONE',  ( 37.50000000000000000, -24.99999999999999600, 3.000000000000000000 ) ) ;
#28 = VECTOR ( 'NONE', #43, 1000.000000000000000 ) ;
#29 = ORIENTED_EDGE ( 'NONE', *, *, #203, .T. ) ;
#30 = DIRECTION ( 'NONE',  ( -0.0000000000000000000, 0.0000000000000000000, -1.000000000000000000 ) ) ;
#31 = CARTESIAN_POINT ( 'NONE',  ( -37.50000000000000000, 24.99999999999999300, 0.0000000000000000000 ) ) ;
#32 = LINE ( 'NONE', #25, #79 ) ;
#33 = APPROVAL ( #230, 'UNSPECIFIED' ) ;
#34 = SECURITY_CLASSIFICATION_LEVEL ( 'unclassified' ) ;
#35 = ORIENTED_EDGE ( 'NONE', *, *, #191, .T. ) ;
#36 = SECURITY_CLASSIFICATION ( '', '', #34 ) ;
#37 = ORIENTED_EDGE ( 'NONE', *, *, #203, .F. ) ;
#38 = PRODUCT ( 'Web Model 68378', 'Web Model 68378', '', ( #64 ) ) ;
#39 = VECTOR ( 'NONE', #55, 1000.000000000000000 ) ;
#40 = VERTEX_POINT ( 'NONE', #53 ) ;
#41 = EDGE_CURVE ( 'NONE', #132, #190, #93, .T. ) ;
#42 = ORIENTED_EDGE ( 'NONE', *, *, #5, .F. ) ;
#43 = DIRECTION ( 'NONE',  ( -0.0000000000000000000, -0.0000000000000000000, -1.000000000000000000 ) ) ;
#44 = VECTOR ( 'NONE', #72, 1000.000000000000000 ) ;
#45 = ORIENTED_EDGE ( 'NONE', *, *, #41, .F. ) ;
#46 = CARTESIAN_POINT ( 'NONE',  ( 37.50000000000000000, -24.99999999999999600, 3.000000000000000000 ) ) ;
#47 = CARTESIAN_POINT ( 'NONE',  ( -37.50000000000000000, -25.00000000000000700, 3.000000000000000000 ) ) ;
#48 = DIRECTION ( 'NONE',  ( -1.000000000000000000, 0.0000000000000000000, -0.0000000000000000000 ) ) ;
#49 = APPROVAL_DATE_TIME ( #69, #33 ) ;
#50 = APPLICATION_CONTEXT ( 'configuration controlled 3d designs of mechanical parts and assemblies' ) ;
#51 = AXIS2_PLACEMENT_3D ( 'NONE', #76, #122, #204 ) ;
#52 = APPROVAL ( #127, 'UNSPECIFIED' ) ;
#53 = CARTESIAN_POINT ( 'NONE',  ( 37.50000000000000000, 25.00000000000000000, 3.000000000000000000 ) ) ;
#54 = CALENDAR_DATE ( 2017, 31, 1 ) ;
#55 = DIRECTION ( 'NONE',  ( -0.0000000000000000000, 1.000000000000000000, -0.0000000000000000000 ) ) ;
#56 = FACE_OUTER_BOUND ( 'NONE', #201, .T. ) ;
#57 = CARTESIAN_POINT ( 'NONE',  ( 37.50000000000000000, 25.00000000000000000, 3.000000000000000000 ) ) ;
#58 = VECTOR ( 'NONE', #218, 1000.000000000000000 ) ;
#59 = PLANE ( 'NONE',  #51 ) ;
#60 = EDGE_CURVE ( 'NONE', #215, #132, #145, .T. ) ;
#61 = DIRECTION ( 'NONE',  ( 1.000000000000000000, 1.387778780781445700E-016, -0.0000000000000000000 ) ) ;
#62 =( NAMED_UNIT ( * ) PLANE_ANGLE_UNIT ( ) SI_UNIT ( $, .RADIAN. ) );
#63 = LINE ( 'NONE', #84, #184 ) ;
#64 = MECHANICAL_CONTEXT ( 'NONE', #205, 'mechanical' ) ;
#65 = APPROVAL_DATE_TIME ( #195, #52 ) ;
#66 = FACE_OUTER_BOUND ( 'NONE', #200, .T. ) ;
#67 = CARTESIAN_POINT ( 'NONE',  ( 37.50000000000000000, 25.00000000000000000, 3.000000000000000000 ) ) ;
#68 = ADVANCED_FACE ( 'NONE', ( #231 ), #168, .F. ) ;
#69 = DATE_AND_TIME ( #206, #220 ) ;
#70 = CARTESIAN_POINT ( 'NONE',  ( 37.50000000000000000, -24.99999999999999600, 0.0000000000000000000 ) ) ;
#71 = CC_DESIGN_PERSON_AND_ORGANIZATION_ASSIGNMENT ( #99, #183, ( #182 ) ) ;
#72 = DIRECTION ( 'NONE',  ( -1.000000000000000000, -9.251858538542971600E-017, 0.0000000000000000000 ) ) ;
#73 = ORIENTED_EDGE ( 'NONE', *, *, #160, .F. ) ;
#74 = DIRECTION ( 'NONE',  ( -0.0000000000000000000, -0.0000000000000000000, -1.000000000000000000 ) ) ;
#75 = CALENDAR_DATE ( 2017, 31, 1 ) ;
#76 = CARTESIAN_POINT ( 'NONE',  ( 37.50000000000000000, -24.99999999999999600, 3.000000000000000000 ) ) ;
#77 = CLOSED_SHELL ( 'NONE', ( #134, #189, #68, #167, #217, #115 ) ) ;
#78 = APPROVAL_ROLE ( '' ) ;
#79 = VECTOR ( 'NONE', #166, 1000.000000000000000 ) ;
#80 = ORIENTED_EDGE ( 'NONE', *, *, #81, .F. ) ;
#81 = EDGE_CURVE ( 'NONE', #40, #132, #63, .T. ) ;
#82 = CC_DESIGN_SECURITY_CLASSIFICATION ( #36, ( #233 ) ) ;
#83 = COORDINATED_UNIVERSAL_TIME_OFFSET ( 5, 0, .BEHIND. ) ;
#84 = CARTESIAN_POINT ( 'NONE',  ( 37.50000000000000000, 25.00000000000000000, 3.000000000000000000 ) ) ;
#85 = ORIENTED_EDGE ( 'NONE', *, *, #18, .F. ) ;
#86 = PLANE ( 'NONE',  #229 ) ;
#87 = DIRECTION ( 'NONE',  ( -1.000000000000000000, 0.0000000000000000000, -0.0000000000000000000 ) ) ;
#88 = CARTESIAN_POINT ( 'NONE',  ( 37.50000000000000000, -24.99999999999999600, 0.0000000000000000000 ) ) ;
#89 = CARTESIAN_POINT ( 'NONE',  ( -37.50000000000000000, -25.00000000000000700, 0.0000000000000000000 ) ) ;
#90 = APPLICATION_PROTOCOL_DEFINITION ( 'international standard', 'config_control_design', 1994, #205 ) ;
#91 = PERSON_AND_ORGANIZATION ( #180, #130 ) ;
#92 = APPROVAL_ROLE ( '' ) ;
#93 = LINE ( 'NONE', #198, #44 ) ;
#94 = APPLICATION_PROTOCOL_DEFINITION ( 'international standard', 'config_control_design', 1994, #50 ) ;
#95 = ORIENTED_EDGE ( 'NONE', *, *, #18, .T. ) ;
#96 = LOCAL_TIME ( 14, 51, 51.00000000000000000, #144 ) ;
#97 = ORIENTED_EDGE ( 'NONE', *, *, #160, .T. ) ;
#98 = ORIENTED_EDGE ( 'NONE', *, *, #60, .F. ) ;
#99 = PERSON_AND_ORGANIZATION ( #180, #130 ) ;
#100 = CARTESIAN_POINT ( 'NONE',  ( 37.50000000000000000, 25.00000000000000000, 3.000000000000000000 ) ) ;
#101 = FACE_OUTER_BOUND ( 'NONE', #232, .T. ) ;
#102 = ORIENTED_EDGE ( 'NONE', *, *, #24, .F. ) ;
#103 = APPROVAL ( #111, 'UNSPECIFIED' ) ;
#104 = CARTESIAN_POINT ( 'NONE',  ( 0.0000000000000000000, 0.0000000000000000000, 0.0000000000000000000 ) ) ;
#105 = CARTESIAN_POINT ( 'NONE',  ( -37.50000000000000000, 24.99999999999999300, 3.000000000000000000 ) ) ;
#106 = PERSON_AND_ORGANIZATION ( #180, #130 ) ;
#107 = PLANE ( 'NONE',  #236 ) ;
#108 = EDGE_CURVE ( 'NONE', #170, #40, #188, .T. ) ;
#109 = DATE_TIME_ROLE ( 'creation_date' ) ;
#110 = ORIENTED_EDGE ( 'NONE', *, *, #191, .F. ) ;
#111 = APPROVAL_STATUS ( 'not_yet_approved' ) ;
#112 = ADVANCED_BREP_SHAPE_REPRESENTATION ( 'Web Model 68378', ( #196, #146 ), #156 ) ;
#113 = PRODUCT_RELATED_PRODUCT_CATEGORY ( 'detail', '', ( #38 ) ) ;
#114 = VERTEX_POINT ( 'NONE', #47 ) ;
#115 = ADVANCED_FACE ( 'NONE', ( #162 ), #176, .T. ) ;
#116 = DIRECTION ( 'NONE',  ( -0.0000000000000000000, 1.000000000000000000, -0.0000000000000000000 ) ) ;
#117 = APPROVAL_PERSON_ORGANIZATION ( #91, #52, #78 ) ;
#118 = ORIENTED_EDGE ( 'NONE', *, *, #178, .F. ) ;
#119 = CARTESIAN_POINT ( 'NONE',  ( 37.50000000000000000, 25.00000000000000000, 0.0000000000000000000 ) ) ;
#120 = LINE ( 'NONE', #142, #4 ) ;
#121 = ORIENTED_EDGE ( 'NONE', *, *, #108, .T. ) ;
#122 = DIRECTION ( 'NONE',  ( -1.387778780781445400E-016, 1.000000000000000000, 0.0000000000000000000 ) ) ;
#123 = CARTESIAN_POINT ( 'NONE',  ( -37.50000000000000000, -25.00000000000000700, 0.0000000000000000000 ) ) ;
#124 = PERSON_AND_ORGANIZATION ( #180, #130 ) ;
#125 = DIRECTION ( 'NONE',  ( 9.251858538542970300E-017, -1.000000000000000000, 0.0000000000000000000 ) ) ;
#126 = CARTESIAN_POINT ( 'NONE',  ( -37.50000000000000000, -25.00000000000000700, 3.000000000000000000 ) ) ;
#127 = APPROVAL_STATUS ( 'not_yet_approved' ) ;
#128 = VECTOR ( 'NONE', #74, 1000.000000000000000 ) ;
#129 = CC_DESIGN_PERSON_AND_ORGANIZATION_ASSIGNMENT ( #177, #16, ( #233 ) ) ;
#130 = ORGANIZATION ( 'UNSPECIFIED', 'UNSPECIFIED', '' ) ;
#131 = LINE ( 'NONE', #202, #23 ) ;
#132 = VERTEX_POINT ( 'NONE', #119 ) ;
#133 = VECTOR ( 'NONE', #143, 1000.000000000000000 ) ;
#134 = ADVANCED_FACE ( 'NONE', ( #66 ), #172, .F. ) ;
#135 = CARTESIAN_POINT ( 'NONE',  ( 37.50000000000000000, 25.00000000000000000, 0.0000000000000000000 ) ) ;
#136 = APPROVAL_PERSON_ORGANIZATION ( #187, #103, #92 ) ;
#137 = LINE ( 'NONE', #223, #212 ) ;
#138 = CC_DESIGN_PERSON_AND_ORGANIZATION_ASSIGNMENT ( #106, #15, ( #233 ) ) ;
#139 = APPROVAL_DATE_TIME ( #26, #103 ) ;
#140 = DIRECTION ( 'NONE',  ( 1.000000000000000000, 0.0000000000000000000, -0.0000000000000000000 ) ) ;
#141 = ORIENTED_EDGE ( 'NONE', *, *, #164, .T. ) ;
#142 = CARTESIAN_POINT ( 'NONE',  ( 37.50000000000000000, -24.99999999999999600, 3.000000000000000000 ) ) ;
#143 = DIRECTION ( 'NONE',  ( 0.0000000000000000000, -1.000000000000000000, 0.0000000000000000000 ) ) ;
#144 = COORDINATED_UNIVERSAL_TIME_OFFSET ( 5, 0, .BEHIND. ) ;
#145 = LINE ( 'NONE', #135, #39 ) ;
#146 = AXIS2_PLACEMENT_3D ( 'NONE', #104, #12, #234 ) ;
#147 = EDGE_LOOP ( 'NONE', ( #163, #80, #151, #35 ) ) ;
#148 = FACE_OUTER_BOUND ( 'NONE', #17, .T. ) ;
#149 = CC_DESIGN_PERSON_AND_ORGANIZATION_ASSIGNMENT ( #225, #179, ( #38 ) ) ;
#150 = DIRECTION ( 'NONE',  ( 0.0000000000000000000, 0.0000000000000000000, -1.000000000000000000 ) ) ;
#151 = ORIENTED_EDGE ( 'NONE', *, *, #108, .F. ) ;
#152 = DIRECTION ( 'NONE',  ( 0.0000000000000000000, -1.000000000000000000, 0.0000000000000000000 ) ) ;
#153 = AXIS2_PLACEMENT_3D ( 'NONE', #123, #150, #48 ) ;
#154 =( LENGTH_UNIT ( ) NAMED_UNIT ( * ) SI_UNIT ( .MILLI., .METRE. ) );
#155 = DIRECTION ( 'NONE',  ( 0.0000000000000000000, 0.0000000000000000000, -1.000000000000000000 ) ) ;
#156 =( GEOMETRIC_REPRESENTATION_CONTEXT ( 3 ) GLOBAL_UNCERTAINTY_ASSIGNED_CONTEXT ( ( #209 ) ) GLOBAL_UNIT_ASSIGNED_CONTEXT ( ( #154, #62, #175 ) ) REPRESENTATION_CONTEXT ( 'NONE', 'WORKASPACE' ) );
#157 = DATE_TIME_ROLE ( 'classification_date' ) ;
#158 = DESIGN_CONTEXT ( 'detailed design', #50, 'design' ) ;
#159 = PRODUCT_DEFINITION_SHAPE ( 'NONE', 'NONE',  #182 ) ;
#160 = EDGE_CURVE ( 'NONE', #114, #170, #120, .T. ) ;
#161 = LOCAL_TIME ( 14, 51, 51.00000000000000000, #2 ) ;
#162 = FACE_OUTER_BOUND ( 'NONE', #165, .T. ) ;
#163 = ORIENTED_EDGE ( 'NONE', *, *, #60, .T. ) ;
#164 = EDGE_CURVE ( 'NONE', #235, #114, #221, .T. ) ;
#165 = EDGE_LOOP ( 'NONE', ( #37, #45, #98, #42 ) ) ;
#166 = DIRECTION ( 'NONE',  ( -0.0000000000000000000, -0.0000000000000000000, -1.000000000000000000 ) ) ;
#167 = ADVANCED_FACE ( 'NONE', ( #101 ), #86, .F. ) ;
#168 = PLANE ( 'NONE',  #185 ) ;
#169 = VECTOR ( 'NONE', #116, 1000.000000000000000 ) ;
#170 = VERTEX_POINT ( 'NONE', #27 ) ;
#171 = DIRECTION ( 'NONE',  ( 0.0000000000000000000, 0.0000000000000000000, 1.000000000000000000 ) ) ;
#172 = PLANE ( 'NONE',  #11 ) ;
#173 = LOCAL_TIME ( 14, 51, 51.00000000000000000, #7 ) ;
#174 = ORIENTED_EDGE ( 'NONE', *, *, #5, .T. ) ;
#175 =( NAMED_UNIT ( * ) SI_UNIT ( $, .STERADIAN. ) SOLID_ANGLE_UNIT ( ) );
#176 = PLANE ( 'NONE',  #153 ) ;
#177 = PERSON_AND_ORGANIZATION ( #180, #130 ) ;
#178 = EDGE_CURVE ( 'NONE', #40, #235, #137, .T. ) ;
#179 = PERSON_AND_ORGANIZATION_ROLE ( 'design_owner' ) ;
#180 = PERSON ( 'UNSPECIFIED', 'UNSPECIFIED', 'UNSPECIFIED', ('UNSPECIFIED'), ('UNSPECIFIED'), ('UNSPECIFIED') ) ;
#181 = PERSON_AND_ORGANIZATION_ROLE ( 'classification_officer' ) ;
#182 = PRODUCT_DEFINITION ( 'UNKNOWN', '', #233, #158 ) ;
#183 = PERSON_AND_ORGANIZATION_ROLE ( 'creator' ) ;
#184 = VECTOR ( 'NONE', #3, 1000.000000000000000 ) ;
#185 = AXIS2_PLACEMENT_3D ( 'NONE', #67, #197, #171 ) ;
#186 = COORDINATED_UNIVERSAL_TIME_OFFSET ( 5, 0, .BEHIND. ) ;
#187 = PERSON_AND_ORGANIZATION ( #180, #130 ) ;
#188 = LINE ( 'NONE', #57, #169 ) ;
#189 = ADVANCED_FACE ( 'NONE', ( #56 ), #59, .F. ) ;
#190 = VERTEX_POINT ( 'NONE', #31 ) ;
#191 = EDGE_CURVE ( 'NONE', #170, #215, #237, .T. ) ;
#192 = ORIENTED_EDGE ( 'NONE', *, *, #24, .T. ) ;
#193 = CC_DESIGN_DATE_AND_TIME_ASSIGNMENT ( #22, #157, ( #36 ) ) ;
#194 = CC_DESIGN_PERSON_AND_ORGANIZATION_ASSIGNMENT ( #124, #181, ( #36 ) ) ;
#195 = DATE_AND_TIME ( #75, #210 ) ;
#196 = MANIFOLD_SOLID_BREP ( 'Extrude1', #77 ) ;
#197 = DIRECTION ( 'NONE',  ( -1.000000000000000000, 0.0000000000000000000, 0.0000000000000000000 ) ) ;
#198 = CARTESIAN_POINT ( 'NONE',  ( 37.50000000000000000, 25.00000000000000000, 0.0000000000000000000 ) ) ;
#199 = CC_DESIGN_APPROVAL ( #33, ( #182 ) ) ;
#200 = EDGE_LOOP ( 'NONE', ( #29, #102, #214, #95 ) ) ;
#201 = EDGE_LOOP ( 'NONE', ( #174, #110, #73, #192 ) ) ;
#202 = CARTESIAN_POINT ( 'NONE',  ( -37.50000000000000000, 24.99999999999999300, 0.0000000000000000000 ) ) ;
#203 = EDGE_CURVE ( 'NONE', #190, #226, #131, .T. ) ;
#204 = DIRECTION ( 'NONE',  ( -1.000000000000000000, -1.387778780781445400E-016, 0.0000000000000000000 ) ) ;
#205 = APPLICATION_CONTEXT ( 'configuration controlled 3d designs of mechanical parts and assemblies' ) ;
#206 = CALENDAR_DATE ( 2017, 31, 1 ) ;
#207 = ORIENTED_EDGE ( 'NONE', *, *, #178, .T. ) ;
#208 = APPROVAL_ROLE ( '' ) ;
#209 = UNCERTAINTY_MEASURE_WITH_UNIT (LENGTH_MEASURE( 1.000000000000000100E-005 ), #154, 'distance_accuracy_value', 'NONE');
#210 = LOCAL_TIME ( 14, 51, 51.00000000000000000, #186 ) ;
#211 = SHAPE_DEFINITION_REPRESENTATION ( #159, #112 ) ;
#212 = VECTOR ( 'NONE', #224, 1000.000000000000000 ) ;
#213 = PERSON_AND_ORGANIZATION ( #180, #130 ) ;
#214 = ORIENTED_EDGE ( 'NONE', *, *, #164, .F. ) ;
#215 = VERTEX_POINT ( 'NONE', #88 ) ;
#216 = CC_DESIGN_DATE_AND_TIME_ASSIGNMENT ( #13, #109, ( #182 ) ) ;
#217 = ADVANCED_FACE ( 'NONE', ( #148 ), #107, .F. ) ;
#218 = DIRECTION ( 'NONE',  ( 1.000000000000000000, 1.387778780781445700E-016, -0.0000000000000000000 ) ) ;
#219 = CALENDAR_DATE ( 2017, 31, 1 ) ;
#220 = LOCAL_TIME ( 14, 51, 51.00000000000000000, #83 ) ;
#221 = LINE ( 'NONE', #10, #133 ) ;
#222 = ORIENTED_EDGE ( 'NONE', *, *, #81, .T. ) ;
#223 = CARTESIAN_POINT ( 'NONE',  ( 37.50000000000000000, 25.00000000000000000, 3.000000000000000000 ) ) ;
#224 = DIRECTION ( 'NONE',  ( -1.000000000000000000, -9.251858538542971600E-017, 0.0000000000000000000 ) ) ;
#225 = PERSON_AND_ORGANIZATION ( #180, #130 ) ;
#226 = VERTEX_POINT ( 'NONE', #89 ) ;
#227 = CARTESIAN_POINT ( 'NONE',  ( -37.50000000000000000, 24.99999999999999300, 3.000000000000000000 ) ) ;
#228 = CC_DESIGN_APPROVAL ( #52, ( #36 ) ) ;
#229 = AXIS2_PLACEMENT_3D ( 'NONE', #100, #125, #6 ) ;
#230 = APPROVAL_STATUS ( 'not_yet_approved' ) ;
#231 = FACE_OUTER_BOUND ( 'NONE', #147, .T. ) ;
#232 = EDGE_LOOP ( 'NONE', ( #9, #85, #118, #222 ) ) ;
#233 = PRODUCT_DEFINITION_FORMATION_WITH_SPECIFIED_SOURCE ( 'ANY', '', #38, .NOT_KNOWN. ) ;
#234 = DIRECTION ( 'NONE',  ( 1.000000000000000000, 0.0000000000000000000, 0.0000000000000000000 ) ) ;
#235 = VERTEX_POINT ( 'NONE', #105 ) ;
#236 = AXIS2_PLACEMENT_3D ( 'NONE', #126, #155, #87 ) ;
#237 = LINE ( 'NONE', #46, #128 ) ;
ENDSEC;
END-ISO-10303-21;
