ISO-10303-21;
HEADER;
FILE_DESCRIPTION (( 'STEP AP203' ),
    '1' );
FILE_NAME ('4891-E0W.STEP',
    '2016-05-18T19:51:32',
    ( 'admin' ),
    ( '' ),
    'SwSTEP 2.0',
    'SolidWorks 2016',
    '' );
FILE_SCHEMA (( 'CONFIG_CONTROL_DESIGN' ));
ENDSEC;

DATA;
#1 = FACE_OUTER_BOUND ( 'NONE', #301, .T. ) ;
#2 = VERTEX_POINT ( 'NONE', #303 ) ;
#3 = CC_DESIGN_PERSON_AND_ORGANIZATION_ASSIGNMENT ( #86, #78, ( #39 ) ) ;
#4 = DIRECTION ( 'NONE',  ( 0.0000000000000000000, -1.387778780781445700E-016, 1.000000000000000000 ) ) ;
#5 = CARTESIAN_POINT ( 'NONE',  ( 0.0000000000000000000, -0.4719607748204107700, 1.888148010551266800E-016 ) ) ;
#6 = COORDINATED_UNIVERSAL_TIME_OFFSET ( 5, 0, .BEHIND. ) ;
#7 = VERTEX_POINT ( 'NONE', #153 ) ;
#8 = DESIGN_CONTEXT ( 'detailed design', #217, 'design' ) ;
#9 = LOCAL_TIME ( 15, 51, 32.00000000000000000, #194 ) ;
#10 = DIRECTION ( 'NONE',  ( -1.000000000000000000, -2.249247266838588900E-032, 1.224646799147353200E-016 ) ) ;
#11 = AXIS2_PLACEMENT_3D ( 'NONE', #237, #241, #4 ) ;
#12 = ORIENTED_EDGE ( 'NONE', *, *, #110, .F. ) ;
#13 = EDGE_LOOP ( 'NONE', ( #70, #169, #41 ) ) ;
#14 = CIRCLE ( 'NONE', #69, 12.44999999999997300 ) ;
#15 = ORIENTED_EDGE ( 'NONE', *, *, #125, .T. ) ;
#16 = EDGE_CURVE ( 'NONE', #247, #163, #265, .T. ) ;
#17 = VERTEX_POINT ( 'NONE', #155 ) ;
#18 = VERTEX_POINT ( 'NONE', #143 ) ;
#19 = DIRECTION ( 'NONE',  ( 0.0000000000000000000, 1.878145495644181100E-016, -1.000000000000000000 ) ) ;
#20 = VECTOR ( 'NONE', #96, 1000.000000000000000 ) ;
#21 = PRODUCT_DEFINITION ( 'UNKNOWN', '', #288, #8 ) ;
#22 = DIRECTION ( 'NONE',  ( 1.000000000000000000, 2.249247266838588900E-032, -1.224646799147353200E-016 ) ) ;
#23 = ADVANCED_FACE ( 'NONE', ( #161 ), #185, .T. ) ;
#24 = CARTESIAN_POINT ( 'NONE',  ( 0.0000000000000000000, 2.659231908177980900, 7.639052344015095600E-016 ) ) ;
#25 = EDGE_LOOP ( 'NONE', ( #77, #174, #268 ) ) ;
#26 = ORIENTED_EDGE ( 'NONE', *, *, #213, .T. ) ;
#27 = AXIS2_PLACEMENT_3D ( 'NONE', #250, #309, #209 ) ;
#28 = CIRCLE ( 'NONE', #280, 12.69999999999999900 ) ;
#29 = SHAPE_DEFINITION_REPRESENTATION ( #37, #150 ) ;
#30 = DIRECTION ( 'NONE',  ( 0.0000000000000000000, -0.7071067811864983900, -0.7071067811865966400 ) ) ;
#31 = CARTESIAN_POINT ( 'NONE',  ( 0.0000000000000000000, 2.659231908177983200, -12.69999999999999900 ) ) ;
#32 = DIRECTION ( 'NONE',  ( 0.0000000000000000000, 0.0000000000000000000, 1.000000000000000000 ) ) ;
#33 = EDGE_CURVE ( 'NONE', #17, #128, #200, .T. ) ;
#34 = ORIENTED_EDGE ( 'NONE', *, *, #310, .T. ) ;
#35 = COORDINATED_UNIVERSAL_TIME_OFFSET ( 5, 0, .BEHIND. ) ;
#36 = EDGE_CURVE ( 'NONE', #18, #163, #291, .T. ) ;
#37 = PRODUCT_DEFINITION_SHAPE ( 'NONE', 'NONE',  #21 ) ;
#38 = APPROVAL_PERSON_ORGANIZATION ( #106, #225, #234 ) ;
#39 = PRODUCT ( '4891-E0W', '4891-E0W', '', ( #233 ) ) ;
#40 = LOCAL_TIME ( 15, 51, 32.00000000000000000, #243 ) ;
#41 = ORIENTED_EDGE ( 'NONE', *, *, #327, .T. ) ;
#42 = AXIS2_PLACEMENT_3D ( 'NONE', #121, #159, #264 ) ;
#43 = CARTESIAN_POINT ( 'NONE',  ( 0.0000000000000000000, 0.0000000000000000000, 0.0000000000000000000 ) ) ;
#44 = ORIENTED_EDGE ( 'NONE', *, *, #36, .T. ) ;
#45 = CARTESIAN_POINT ( 'NONE',  ( 0.0000000000000000000, 57.20000000000000300, 0.0000000000000000000 ) ) ;
#46 = CARTESIAN_POINT ( 'NONE',  ( 0.0000000000000000000, -0.7219607748204128800, 12.44999999999999900 ) ) ;
#47 = CIRCLE ( 'NONE', #224, 100.0000000000000000 ) ;
#48 = SPHERICAL_SURFACE ( 'NONE', #11, 100.0000000000000000 ) ;
#49 = CARTESIAN_POINT ( 'NONE',  ( 1.539993349927795200E-015, 2.909231908177970300, 12.44999999999997300 ) ) ;
#50 = APPROVAL_DATE_TIME ( #297, #130 ) ;
#51 = EDGE_CURVE ( 'NONE', #2, #128, #136, .T. ) ;
#52 = CARTESIAN_POINT ( 'NONE',  ( 0.0000000000000000000, -0.7219607748204106600, 1.428985567060498400E-016 ) ) ;
#53 = DIRECTION ( 'NONE',  ( 0.0000000000000000000, 1.707404996040164500E-016, -1.000000000000000000 ) ) ;
#54 = CARTESIAN_POINT ( 'NONE',  ( 0.0000000000000000000, 2.909231908177972500, 8.098214787505848800E-016 ) ) ;
#55 = FACE_OUTER_BOUND ( 'NONE', #13, .T. ) ;
#56 =( NAMED_UNIT ( * ) SI_UNIT ( $, .STERADIAN. ) SOLID_ANGLE_UNIT ( ) );
#57 = DIRECTION ( 'NONE',  ( 0.0000000000000000000, 1.835460370743176800E-016, -1.000000000000000000 ) ) ;
#58 = ORIENTED_EDGE ( 'NONE', *, *, #327, .F. ) ;
#59 = EDGE_LOOP ( 'NONE', ( #323, #254, #82 ) ) ;
#60 = CARTESIAN_POINT ( 'NONE',  ( 0.0000000000000000000, -1.499999999999997600, -12.69999999999999900 ) ) ;
#61 = DIRECTION ( 'NONE',  ( 0.0000000000000000000, 1.828774748770730500E-016, -1.000000000000000000 ) ) ;
#62 = CC_DESIGN_SECURITY_CLASSIFICATION ( #182, ( #288 ) ) ;
#63 = DATE_AND_TIME ( #64, #195 ) ;
#64 = CALENDAR_DATE ( 2016, 18, 5 ) ;
#65 = LOCAL_TIME ( 15, 51, 32.00000000000000000, #6 ) ;
#66 = DATE_TIME_ROLE ( 'creation_date' ) ;
#67 = CIRCLE ( 'NONE', #134, 12.44999999999999900 ) ;
#68 = CARTESIAN_POINT ( 'NONE',  ( 0.0000000000000000000, 98.50000000000000000, 0.0000000000000000000 ) ) ;
#69 = AXIS2_PLACEMENT_3D ( 'NONE', #54, #212, #270 ) ;
#70 = ORIENTED_EDGE ( 'NONE', *, *, #310, .F. ) ;
#71 = DIRECTION ( 'NONE',  ( -0.0000000000000000000, -1.000000000000000000, -1.836649773963074400E-016 ) ) ;
#72 = EDGE_CURVE ( 'NONE', #2, #247, #124, .T. ) ;
#73 = DIRECTION ( 'NONE',  ( 0.0000000000000000000, 1.245761921706863300E-016, -1.000000000000000000 ) ) ;
#74 = CIRCLE ( 'NONE', #105, 12.44999999999999900 ) ;
#75 = DIRECTION ( 'NONE',  ( 0.0000000000000000000, -1.828774748770730500E-016, 1.000000000000000000 ) ) ;
#76 = APPROVAL_STATUS ( 'not_yet_approved' ) ;
#77 = ORIENTED_EDGE ( 'NONE', *, *, #205, .F. ) ;
#78 = PERSON_AND_ORGANIZATION_ROLE ( 'design_owner' ) ;
#79 = PRODUCT_RELATED_PRODUCT_CATEGORY ( 'detail', '', ( #39 ) ) ;
#80 = ADVANCED_FACE ( 'NONE', ( #1 ), #165, .T. ) ;
#81 = CARTESIAN_POINT ( 'NONE',  ( 0.0000000000000000000, 57.20000000000000300, 0.0000000000000000000 ) ) ;
#82 = ORIENTED_EDGE ( 'NONE', *, *, #138, .F. ) ;
#83 =( LENGTH_UNIT ( ) NAMED_UNIT ( * ) SI_UNIT ( .MILLI., .METRE. ) );
#84 = CONICAL_SURFACE ( 'NONE', #164, 12.69999999999999900, 0.7853981633975176700 ) ;
#85 = DIRECTION ( 'NONE',  ( 0.0000000000000000000, -1.387778780781445700E-016, 1.000000000000000000 ) ) ;
#86 = PERSON_AND_ORGANIZATION ( #207, #175 ) ;
#87 = AXIS2_PLACEMENT_3D ( 'NONE', #91, #306, #75 ) ;
#88 = CARTESIAN_POINT ( 'NONE',  ( 1.555301434917138400E-015, -1.500000000000002400, 12.69999999999999900 ) ) ;
#89 = DIRECTION ( 'NONE',  ( -0.0000000000000000000, -1.000000000000000000, -1.836649773963074400E-016 ) ) ;
#90 = CIRCLE ( 'NONE', #208, 100.0000000000000000 ) ;
#91 = CARTESIAN_POINT ( 'NONE',  ( 0.0000000000000000000, -0.7219607748204106600, 1.428985567060498400E-016 ) ) ;
#92 = EDGE_LOOP ( 'NONE', ( #215, #26, #147, #236 ) ) ;
#93 = SECURITY_CLASSIFICATION_LEVEL ( 'unclassified' ) ;
#94 = APPROVAL ( #117, 'UNSPECIFIED' ) ;
#95 = CARTESIAN_POINT ( 'NONE',  ( 0.0000000000000000000, 57.20000000000000300, 0.0000000000000000000 ) ) ;
#96 = DIRECTION ( 'NONE',  ( 0.0000000000000000000, 0.7071067811865470200, 0.7071067811865481300 ) ) ;
#97 = VECTOR ( 'NONE', #101, 1000.000000000000000 ) ;
#98 = EDGE_CURVE ( 'NONE', #163, #247, #28, .T. ) ;
#99 = PERSON_AND_ORGANIZATION ( #207, #175 ) ;
#100 = ORIENTED_EDGE ( 'NONE', *, *, #36, .F. ) ;
#101 = DIRECTION ( 'NONE',  ( 8.659560562355533100E-017, -0.7071067811864986100, 0.7071067811865964200 ) ) ;
#102 = SPHERICAL_SURFACE ( 'NONE', #235, 100.0000000000000000 ) ;
#103 = VERTEX_POINT ( 'NONE', #49 ) ;
#104 = PERSON_AND_ORGANIZATION ( #207, #175 ) ;
#105 = AXIS2_PLACEMENT_3D ( 'NONE', #183, #258, #137 ) ;
#106 = PERSON_AND_ORGANIZATION ( #207, #175 ) ;
#107 = ADVANCED_FACE ( 'NONE', ( #55 ), #48, .T. ) ;
#108 = CARTESIAN_POINT ( 'NONE',  ( 0.0000000000000000000, 98.50000000000000000, 0.0000000000000000000 ) ) ;
#109 = FACE_OUTER_BOUND ( 'NONE', #59, .T. ) ;
#110 = EDGE_CURVE ( 'NONE', #201, #247, #261, .T. ) ;
#111 = ORIENTED_EDGE ( 'NONE', *, *, #267, .T. ) ;
#112 = ORIENTED_EDGE ( 'NONE', *, *, #110, .T. ) ;
#113 = DIRECTION ( 'NONE',  ( 0.0000000000000000000, 1.741690236924509000E-016, -1.000000000000000000 ) ) ;
#114 = DIRECTION ( 'NONE',  ( -0.0000000000000000000, -1.000000000000000000, -1.836649773963074400E-016 ) ) ;
#115 = APPROVAL_DATE_TIME ( #273, #225 ) ;
#116 = DIRECTION ( 'NONE',  ( 0.0000000000000000000, 1.835460370743176800E-016, -1.000000000000000000 ) ) ;
#117 = APPROVAL_STATUS ( 'not_yet_approved' ) ;
#118 = CARTESIAN_POINT ( 'NONE',  ( 0.0000000000000000000, 98.50000000000000000, 0.0000000000000000000 ) ) ;
#119 = DIRECTION ( 'NONE',  ( -1.000000000000000000, -0.0000000000000000000, 0.0000000000000000000 ) ) ;
#120 = CONICAL_SURFACE ( 'NONE', #87, 12.44999999999999900, 0.7853981633974489500 ) ;
#121 = CARTESIAN_POINT ( 'NONE',  ( 0.0000000000000000000, 57.20000000000000300, 0.0000000000000000000 ) ) ;
#122 = PERSON_AND_ORGANIZATION_ROLE ( 'creator' ) ;
#123 = AXIS2_PLACEMENT_3D ( 'NONE', #132, #114, #113 ) ;
#124 = LINE ( 'NONE', #88, #133 ) ;
#125 = EDGE_CURVE ( 'NONE', #128, #163, #271, .T. ) ;
#126 = PERSON_AND_ORGANIZATION ( #207, #175 ) ;
#127 = VERTEX_POINT ( 'NONE', #167 ) ;
#128 = VERTEX_POINT ( 'NONE', #278 ) ;
#129 = ADVANCED_FACE ( 'NONE', ( #188 ), #266, .F. ) ;
#130 = APPROVAL ( #76, 'UNSPECIFIED' ) ;
#131 = FACE_OUTER_BOUND ( 'NONE', #135, .T. ) ;
#132 = CARTESIAN_POINT ( 'NONE',  ( 0.0000000000000000000, 2.909231908177972500, 8.098214787505848800E-016 ) ) ;
#133 = VECTOR ( 'NONE', #239, 1000.000000000000000 ) ;
#134 = AXIS2_PLACEMENT_3D ( 'NONE', #52, #89, #61 ) ;
#135 = EDGE_LOOP ( 'NONE', ( #216, #141, #171, #222 ) ) ;
#136 = CIRCLE ( 'NONE', #226, 12.69999999999999900 ) ;
#137 = DIRECTION ( 'NONE',  ( 0.0000000000000000000, 1.828774748770730500E-016, -1.000000000000000000 ) ) ;
#138 = EDGE_CURVE ( 'NONE', #17, #7, #325, .T. ) ;
#139 = CC_DESIGN_APPROVAL ( #130, ( #182 ) ) ;
#140 = ADVANCED_FACE ( 'NONE', ( #304 ), #120, .T. ) ;
#141 = ORIENTED_EDGE ( 'NONE', *, *, #72, .T. ) ;
#142 = CLOSED_SHELL ( 'NONE', ( #295, #302, #282, #229, #324, #107, #140, #23, #80, #129 ) ) ;
#143 = CARTESIAN_POINT ( 'NONE',  ( -1.524685264938455800E-015, -0.7219607748204091000, -12.45000000000002900 ) ) ;
#144 = PERSON_AND_ORGANIZATION ( #207, #175 ) ;
#145 = LOCAL_TIME ( 15, 51, 32.00000000000000000, #246 ) ;
#146 = PERSON_AND_ORGANIZATION_ROLE ( 'design_supplier' ) ;
#147 = ORIENTED_EDGE ( 'NONE', *, *, #210, .F. ) ;
#148 = CALENDAR_DATE ( 2016, 18, 5 ) ;
#149 = AXIS2_PLACEMENT_3D ( 'NONE', #45, #242, #73 ) ;
#150 = ADVANCED_BREP_SHAPE_REPRESENTATION ( '4891-E0W', ( #311, #314 ), #253 ) ;
#151 = CARTESIAN_POINT ( 'NONE',  ( 0.0000000000000000000, 2.659231908177980900, 7.639052344015095600E-016 ) ) ;
#152 = DIRECTION ( 'NONE',  ( 0.0000000000000000000, 1.707404996040164500E-016, -1.000000000000000000 ) ) ;
#153 = CARTESIAN_POINT ( 'NONE',  ( 0.0000000000000000000, 1.500000000000001300, -1.364078057659970400E-014 ) ) ;
#154 = ORIENTED_EDGE ( 'NONE', *, *, #16, .F. ) ;
#155 = CARTESIAN_POINT ( 'NONE',  ( 0.0000000000000000000, 2.909231908177974700, -12.44999999999997300 ) ) ;
#156 = LINE ( 'NONE', #206, #97 ) ;
#157 = AXIS2_PLACEMENT_3D ( 'NONE', #5, #189, #116 ) ;
#158 = SPHERICAL_SURFACE ( 'NONE', #149, 55.70000000000000300 ) ;
#159 = DIRECTION ( 'NONE',  ( 1.000000000000000000, -0.0000000000000000000, 0.0000000000000000000 ) ) ;
#160 = CC_DESIGN_PERSON_AND_ORGANIZATION_ASSIGNMENT ( #104, #146, ( #288 ) ) ;
#161 = FACE_OUTER_BOUND ( 'NONE', #223, .T. ) ;
#162 = UNCERTAINTY_MEASURE_WITH_UNIT (LENGTH_MEASURE( 1.000000000000000100E-005 ), #83, 'distance_accuracy_value', 'NONE');
#163 = VERTEX_POINT ( 'NONE', #184 ) ;
#164 = AXIS2_PLACEMENT_3D ( 'NONE', #299, #307, #152 ) ;
#165 = CONICAL_SURFACE ( 'NONE', #198, 12.69999999999999900, 0.7853981633975176700 ) ;
#166 = CONICAL_SURFACE ( 'NONE', #27, 12.44999999999999900, 0.7853981633974489500 ) ;
#167 = CARTESIAN_POINT ( 'NONE',  ( 0.0000000000000000000, -1.500000000000001300, -1.224326374389397600E-014 ) ) ;
#168 = APPROVAL_PERSON_ORGANIZATION ( #99, #130, #203 ) ;
#169 = ORIENTED_EDGE ( 'NONE', *, *, #248, .T. ) ;
#170 = CYLINDRICAL_SURFACE ( 'NONE', #190, 12.69999999999999900 ) ;
#171 = ORIENTED_EDGE ( 'NONE', *, *, #98, .F. ) ;
#172 = EDGE_CURVE ( 'NONE', #103, #17, #260, .T. ) ;
#173 = APPROVAL_ROLE ( '' ) ;
#174 = ORIENTED_EDGE ( 'NONE', *, *, #244, .F. ) ;
#175 = ORGANIZATION ( 'UNSPECIFIED', 'UNSPECIFIED', '' ) ;
#176 = DIRECTION ( 'NONE',  ( -1.224646799147353000E-016, 0.0000000000000000000, -1.000000000000000000 ) ) ;
#177 = PERSON_AND_ORGANIZATION ( #207, #175 ) ;
#178 = EDGE_LOOP ( 'NONE', ( #111, #34, #58 ) ) ;
#179 = ORIENTED_EDGE ( 'NONE', *, *, #16, .T. ) ;
#180 = DIRECTION ( 'NONE',  ( -0.0000000000000000000, -1.000000000000000000, -1.836649773963074400E-016 ) ) ;
#181 = DIRECTION ( 'NONE',  ( 1.224646799147353200E-016, 0.0000000000000000000, 1.000000000000000000 ) ) ;
#182 = SECURITY_CLASSIFICATION ( '', '', #93 ) ;
#183 = CARTESIAN_POINT ( 'NONE',  ( 0.0000000000000000000, -0.7219607748204106600, 1.428985567060498400E-016 ) ) ;
#184 = CARTESIAN_POINT ( 'NONE',  ( 1.555301434917138400E-015, -0.4719607748204084400, -12.69999999999999900 ) ) ;
#185 = CYLINDRICAL_SURFACE ( 'NONE', #259, 12.69999999999999900 ) ;
#186 = CALENDAR_DATE ( 2016, 18, 5 ) ;
#187 = DATE_AND_TIME ( #313, #145 ) ;
#188 = FACE_OUTER_BOUND ( 'NONE', #25, .T. ) ;
#189 = DIRECTION ( 'NONE',  ( -0.0000000000000000000, -1.000000000000000000, -1.836649773963074400E-016 ) ) ;
#190 = AXIS2_PLACEMENT_3D ( 'NONE', #321, #211, #19 ) ;
#191 = ORIENTED_EDGE ( 'NONE', *, *, #267, .F. ) ;
#192 = DIRECTION ( 'NONE',  ( 0.0000000000000000000, 1.878145495644181100E-016, -1.000000000000000000 ) ) ;
#193 = CARTESIAN_POINT ( 'NONE',  ( 0.0000000000000000000, -0.7219607748204114300, 12.45000000000001200 ) ) ;
#194 = COORDINATED_UNIVERSAL_TIME_OFFSET ( 5, 0, .BEHIND. ) ;
#195 = LOCAL_TIME ( 15, 51, 32.00000000000000000, #35 ) ;
#196 = DIRECTION ( 'NONE',  ( 1.000000000000000000, 0.0000000000000000000, 0.0000000000000000000 ) ) ;
#197 = ORIENTED_EDGE ( 'NONE', *, *, #51, .T. ) ;
#198 = AXIS2_PLACEMENT_3D ( 'NONE', #214, #262, #53 ) ;
#199 = CALENDAR_DATE ( 2016, 18, 5 ) ;
#200 = LINE ( 'NONE', #31, #228 ) ;
#201 = VERTEX_POINT ( 'NONE', #193 ) ;
#202 = CC_DESIGN_PERSON_AND_ORGANIZATION_ASSIGNMENT ( #177, #296, ( #182 ) ) ;
#203 = APPROVAL_ROLE ( '' ) ;
#204 = EDGE_LOOP ( 'NONE', ( #100, #191, #112, #179 ) ) ;
#205 = EDGE_CURVE ( 'NONE', #103, #7, #251, .T. ) ;
#206 = CARTESIAN_POINT ( 'NONE',  ( 1.555301434917138400E-015, 2.659231908177978700, 12.69999999999999900 ) ) ;
#207 = PERSON ( 'UNSPECIFIED', 'UNSPECIFIED', 'UNSPECIFIED', ('UNSPECIFIED'), ('UNSPECIFIED'), ('UNSPECIFIED') ) ;
#208 = AXIS2_PLACEMENT_3D ( 'NONE', #108, #10, #181 ) ;
#209 = DIRECTION ( 'NONE',  ( 0.0000000000000000000, -1.828774748770730500E-016, 1.000000000000000000 ) ) ;
#210 = EDGE_CURVE ( 'NONE', #128, #2, #249, .T. ) ;
#211 = DIRECTION ( 'NONE',  ( -0.0000000000000000000, -1.000000000000000000, -1.836649773963074400E-016 ) ) ;
#212 = DIRECTION ( 'NONE',  ( -0.0000000000000000000, -1.000000000000000000, -1.836649773963074400E-016 ) ) ;
#213 = EDGE_CURVE ( 'NONE', #103, #2, #156, .T. ) ;
#214 = CARTESIAN_POINT ( 'NONE',  ( 0.0000000000000000000, 2.659231908177980900, 7.639052344015095600E-016 ) ) ;
#215 = ORIENTED_EDGE ( 'NONE', *, *, #244, .T. ) ;
#216 = ORIENTED_EDGE ( 'NONE', *, *, #210, .T. ) ;
#217 = APPLICATION_CONTEXT ( 'configuration controlled 3d designs of mechanical parts and assemblies' ) ;
#218 = CARTESIAN_POINT ( 'NONE',  ( 0.0000000000000000000, -0.4719607748204131000, 12.69999999999999900 ) ) ;
#219 = DIRECTION ( 'NONE',  ( -0.0000000000000000000, -1.000000000000000000, -1.836649773963074400E-016 ) ) ;
#220 = CC_DESIGN_DATE_AND_TIME_ASSIGNMENT ( #274, #263, ( #182 ) ) ;
#221 = DIRECTION ( 'NONE',  ( 0.0000000000000000000, 0.0000000000000000000, 1.000000000000000000 ) ) ;
#222 = ORIENTED_EDGE ( 'NONE', *, *, #125, .F. ) ;
#223 = EDGE_LOOP ( 'NONE', ( #322, #197, #15, #154 ) ) ;
#224 = AXIS2_PLACEMENT_3D ( 'NONE', #68, #252, #272 ) ;
#225 = APPROVAL ( #312, 'UNSPECIFIED' ) ;
#226 = AXIS2_PLACEMENT_3D ( 'NONE', #151, #180, #269 ) ;
#227 = DIRECTION ( 'NONE',  ( -0.0000000000000000000, -1.000000000000000000, -1.836649773963074400E-016 ) ) ;
#228 = VECTOR ( 'NONE', #30, 1000.000000000000000 ) ;
#229 = ADVANCED_FACE ( 'NONE', ( #292 ), #166, .T. ) ;
#230 = DIRECTION ( 'NONE',  ( 0.0000000000000000000, 1.707404996040164500E-016, -1.000000000000000000 ) ) ;
#231 = CC_DESIGN_PERSON_AND_ORGANIZATION_ASSIGNMENT ( #317, #300, ( #288 ) ) ;
#232 = CARTESIAN_POINT ( 'NONE',  ( 0.0000000000000000000, -1.500000000000000000, 0.0000000000000000000 ) ) ;
#233 = MECHANICAL_CONTEXT ( 'NONE', #238, 'mechanical' ) ;
#234 = APPROVAL_ROLE ( '' ) ;
#235 = AXIS2_PLACEMENT_3D ( 'NONE', #118, #119, #85 ) ;
#236 = ORIENTED_EDGE ( 'NONE', *, *, #33, .F. ) ;
#237 = CARTESIAN_POINT ( 'NONE',  ( 0.0000000000000000000, 98.50000000000000000, 0.0000000000000000000 ) ) ;
#238 = APPLICATION_CONTEXT ( 'configuration controlled 3d designs of mechanical parts and assemblies' ) ;
#239 = DIRECTION ( 'NONE',  ( -0.0000000000000000000, -1.000000000000000000, -1.836649773963074400E-016 ) ) ;
#240 = CC_DESIGN_APPROVAL ( #225, ( #21 ) ) ;
#241 = DIRECTION ( 'NONE',  ( -1.000000000000000000, -0.0000000000000000000, 0.0000000000000000000 ) ) ;
#242 = DIRECTION ( 'NONE',  ( 1.000000000000000000, -0.0000000000000000000, 0.0000000000000000000 ) ) ;
#243 = COORDINATED_UNIVERSAL_TIME_OFFSET ( 5, 0, .BEHIND. ) ;
#244 = EDGE_CURVE ( 'NONE', #17, #103, #14, .T. ) ;
#245 = ORIENTED_EDGE ( 'NONE', *, *, #213, .F. ) ;
#246 = COORDINATED_UNIVERSAL_TIME_OFFSET ( 5, 0, .BEHIND. ) ;
#247 = VERTEX_POINT ( 'NONE', #218 ) ;
#248 = EDGE_CURVE ( 'NONE', #18, #201, #74, .T. ) ;
#249 = CIRCLE ( 'NONE', #319, 12.69999999999999900 ) ;
#250 = CARTESIAN_POINT ( 'NONE',  ( 0.0000000000000000000, -0.7219607748204106600, 1.428985567060498400E-016 ) ) ;
#251 = CIRCLE ( 'NONE', #290, 55.70000000000000300 ) ;
#252 = DIRECTION ( 'NONE',  ( 1.000000000000000000, -0.0000000000000000000, 0.0000000000000000000 ) ) ;
#253 =( GEOMETRIC_REPRESENTATION_CONTEXT ( 3 ) GLOBAL_UNCERTAINTY_ASSIGNED_CONTEXT ( ( #162 ) ) GLOBAL_UNIT_ASSIGNED_CONTEXT ( ( #83, #320, #56 ) ) REPRESENTATION_CONTEXT ( 'NONE', 'WORKASPACE' ) );
#254 = ORIENTED_EDGE ( 'NONE', *, *, #205, .T. ) ;
#255 = ORIENTED_EDGE ( 'NONE', *, *, #98, .T. ) ;
#256 = CC_DESIGN_PERSON_AND_ORGANIZATION_ASSIGNMENT ( #126, #122, ( #21 ) ) ;
#257 = APPROVAL_DATE_TIME ( #187, #94 ) ;
#258 = DIRECTION ( 'NONE',  ( -0.0000000000000000000, -1.000000000000000000, -1.836649773963074400E-016 ) ) ;
#259 = AXIS2_PLACEMENT_3D ( 'NONE', #232, #219, #192 ) ;
#260 = CIRCLE ( 'NONE', #123, 12.44999999999997300 ) ;
#261 = LINE ( 'NONE', #46, #20 ) ;
#262 = DIRECTION ( 'NONE',  ( -0.0000000000000000000, -1.000000000000000000, -1.836649773963074400E-016 ) ) ;
#263 = DATE_TIME_ROLE ( 'classification_date' ) ;
#264 = DIRECTION ( 'NONE',  ( 0.0000000000000000000, 1.245761921706863300E-016, -1.000000000000000000 ) ) ;
#265 = CIRCLE ( 'NONE', #157, 12.69999999999999900 ) ;
#266 = SPHERICAL_SURFACE ( 'NONE', #42, 55.70000000000000300 ) ;
#267 = EDGE_CURVE ( 'NONE', #201, #18, #67, .T. ) ;
#268 = ORIENTED_EDGE ( 'NONE', *, *, #138, .T. ) ;
#269 = DIRECTION ( 'NONE',  ( 0.0000000000000000000, 1.707404996040164500E-016, -1.000000000000000000 ) ) ;
#270 = DIRECTION ( 'NONE',  ( 0.0000000000000000000, 1.741690236924509000E-016, -1.000000000000000000 ) ) ;
#271 = LINE ( 'NONE', #60, #316 ) ;
#272 = DIRECTION ( 'NONE',  ( 0.0000000000000000000, 0.0000000000000000000, -1.000000000000000000 ) ) ;
#273 = DATE_AND_TIME ( #199, #9 ) ;
#274 = DATE_AND_TIME ( #186, #65 ) ;
#275 = EDGE_LOOP ( 'NONE', ( #298, #44, #255, #12 ) ) ;
#276 = FACE_OUTER_BOUND ( 'NONE', #92, .T. ) ;
#277 = CC_DESIGN_DATE_AND_TIME_ASSIGNMENT ( #63, #66, ( #21 ) ) ;
#278 = CARTESIAN_POINT ( 'NONE',  ( 0.0000000000000000000, 2.659231908177983200, -12.69999999999999900 ) ) ;
#279 = VECTOR ( 'NONE', #315, 1000.000000000000000 ) ;
#280 = AXIS2_PLACEMENT_3D ( 'NONE', #285, #71, #57 ) ;
#281 = APPLICATION_PROTOCOL_DEFINITION ( 'international standard', 'config_control_design', 1994, #217 ) ;
#282 = ADVANCED_FACE ( 'NONE', ( #131 ), #170, .T. ) ;
#283 = DIRECTION ( 'NONE',  ( -1.000000000000000000, 0.0000000000000000000, 0.0000000000000000000 ) ) ;
#284 = ORIENTED_EDGE ( 'NONE', *, *, #172, .T. ) ;
#285 = CARTESIAN_POINT ( 'NONE',  ( 0.0000000000000000000, -0.4719607748204107700, 1.888148010551266800E-016 ) ) ;
#286 = APPLICATION_PROTOCOL_DEFINITION ( 'international standard', 'config_control_design', 1994, #238 ) ;
#287 = ORIENTED_EDGE ( 'NONE', *, *, #33, .T. ) ;
#288 = PRODUCT_DEFINITION_FORMATION_WITH_SPECIFIED_SOURCE ( 'ANY', '', #39, .NOT_KNOWN. ) ;
#289 = DIRECTION ( 'NONE',  ( -0.0000000000000000000, -1.000000000000000000, -1.836649773963074400E-016 ) ) ;
#290 = AXIS2_PLACEMENT_3D ( 'NONE', #81, #22, #176 ) ;
#291 = LINE ( 'NONE', #293, #279 ) ;
#292 = FACE_OUTER_BOUND ( 'NONE', #275, .T. ) ;
#293 = CARTESIAN_POINT ( 'NONE',  ( 1.524685264938454600E-015, -0.7219607748204083200, -12.44999999999999900 ) ) ;
#294 = FACE_OUTER_BOUND ( 'NONE', #178, .T. ) ;
#295 = ADVANCED_FACE ( 'NONE', ( #109 ), #158, .F. ) ;
#296 = PERSON_AND_ORGANIZATION_ROLE ( 'classification_officer' ) ;
#297 = DATE_AND_TIME ( #148, #40 ) ;
#298 = ORIENTED_EDGE ( 'NONE', *, *, #248, .F. ) ;
#299 = CARTESIAN_POINT ( 'NONE',  ( 0.0000000000000000000, 2.659231908177980900, 7.639052344015095600E-016 ) ) ;
#300 = PERSON_AND_ORGANIZATION_ROLE ( 'creator' ) ;
#301 = EDGE_LOOP ( 'NONE', ( #245, #284, #287, #326 ) ) ;
#302 = ADVANCED_FACE ( 'NONE', ( #276 ), #84, .T. ) ;
#303 = CARTESIAN_POINT ( 'NONE',  ( 1.555301434917138400E-015, 2.659231908177978700, 12.69999999999999900 ) ) ;
#304 = FACE_OUTER_BOUND ( 'NONE', #204, .T. ) ;
#305 = CC_DESIGN_APPROVAL ( #94, ( #288 ) ) ;
#306 = DIRECTION ( 'NONE',  ( 0.0000000000000000000, 1.000000000000000000, 1.836649773963074400E-016 ) ) ;
#307 = DIRECTION ( 'NONE',  ( -0.0000000000000000000, -1.000000000000000000, -1.836649773963074400E-016 ) ) ;
#308 = AXIS2_PLACEMENT_3D ( 'NONE', #95, #283, #32 ) ;
#309 = DIRECTION ( 'NONE',  ( 0.0000000000000000000, 1.000000000000000000, 1.836649773963074400E-016 ) ) ;
#310 = EDGE_CURVE ( 'NONE', #18, #127, #90, .T. ) ;
#311 = MANIFOLD_SOLID_BREP ( '4891-001-1-solid1', #142 ) ;
#312 = APPROVAL_STATUS ( 'not_yet_approved' ) ;
#313 = CALENDAR_DATE ( 2016, 18, 5 ) ;
#314 = AXIS2_PLACEMENT_3D ( 'NONE', #43, #221, #196 ) ;
#315 = DIRECTION ( 'NONE',  ( 8.659560562354939000E-017, 0.7071067811865472400, -0.7071067811865479100 ) ) ;
#316 = VECTOR ( 'NONE', #289, 1000.000000000000000 ) ;
#317 = PERSON_AND_ORGANIZATION ( #207, #175 ) ;
#318 = APPROVAL_PERSON_ORGANIZATION ( #144, #94, #173 ) ;
#319 = AXIS2_PLACEMENT_3D ( 'NONE', #24, #227, #230 ) ;
#320 =( NAMED_UNIT ( * ) PLANE_ANGLE_UNIT ( ) SI_UNIT ( $, .RADIAN. ) );
#321 = CARTESIAN_POINT ( 'NONE',  ( 0.0000000000000000000, -1.500000000000000000, 0.0000000000000000000 ) ) ;
#322 = ORIENTED_EDGE ( 'NONE', *, *, #72, .F. ) ;
#323 = ORIENTED_EDGE ( 'NONE', *, *, #172, .F. ) ;
#324 = ADVANCED_FACE ( 'NONE', ( #294 ), #102, .T. ) ;
#325 = CIRCLE ( 'NONE', #308, 55.70000000000000300 ) ;
#326 = ORIENTED_EDGE ( 'NONE', *, *, #51, .F. ) ;
#327 = EDGE_CURVE ( 'NONE', #201, #127, #47, .T. ) ;
ENDSEC;
END-ISO-10303-21;
