ISO-10303-21;
HEADER;
FILE_DESCRIPTION (( 'STEP AP203' ),
    '1' );
FILE_NAME ('Web Model 37128MX_37131.step',
    '2018-05-08T16:11:53',
    ( '' ),
    ( '' ),
    'SwSTEP 2.0',
    'SolidWorks 2016',
    '' );
FILE_SCHEMA (( 'CONFIG_CONTROL_DESIGN' ));
ENDSEC;

DATA;
#1 = CARTESIAN_POINT ( 'NONE',  ( 12.50000000000000500, -12.50000000000000200, 3.000000000000000000 ) ) ;
#2 = APPROVAL_DATE_TIME ( #76, #50 ) ;
#3 = DATE_AND_TIME ( #149, #199 ) ;
#4 = ORIENTED_EDGE ( 'NONE', *, *, #215, .F. ) ;
#5 = PLANE ( 'NONE',  #69 ) ;
#6 = CARTESIAN_POINT ( 'NONE',  ( 12.50000000000000500, -12.50000000000000200, 3.000000000000000000 ) ) ;
#7 = ORIENTED_EDGE ( 'NONE', *, *, #88, .T. ) ;
#8 = EDGE_CURVE ( 'NONE', #156, #178, #158, .T. ) ;
#9 = COORDINATED_UNIVERSAL_TIME_OFFSET ( 5, 0, .BEHIND. ) ;
#10 = CARTESIAN_POINT ( 'NONE',  ( 12.50000000000000500, -12.50000000000000200, 3.000000000000000000 ) ) ;
#11 = VECTOR ( 'NONE', #63, 1000.000000000000000 ) ;
#12 = APPROVAL_STATUS ( 'not_yet_approved' ) ;
#13 = ORIENTED_EDGE ( 'NONE', *, *, #230, .T. ) ;
#14 = ORIENTED_EDGE ( 'NONE', *, *, #144, .T. ) ;
#15 = CALENDAR_DATE ( 2018, 8, 5 ) ;
#16 = VECTOR ( 'NONE', #168, 1000.000000000000000 ) ;
#17 = CARTESIAN_POINT ( 'NONE',  ( 12.50000000000000500, 12.49999999999999800, -3.000000000000000000 ) ) ;
#18 = PERSON ( 'UNSPECIFIED', 'UNSPECIFIED', 'UNSPECIFIED', ('UNSPECIFIED'), ('UNSPECIFIED'), ('UNSPECIFIED') ) ;
#19 = EDGE_CURVE ( 'NONE', #178, #54, #95, .T. ) ;
#20 = DATE_AND_TIME ( #85, #162 ) ;
#21 = VECTOR ( 'NONE', #222, 1000.000000000000000 ) ;
#22 = ORIENTED_EDGE ( 'NONE', *, *, #233, .T. ) ;
#23 = DIRECTION ( 'NONE',  ( 0.0000000000000000000, 0.0000000000000000000, 1.000000000000000000 ) ) ;
#24 = PRODUCT_DEFINITION ( 'UNKNOWN', '', #119, #93 ) ;
#25 = COORDINATED_UNIVERSAL_TIME_OFFSET ( 5, 0, .BEHIND. ) ;
#26 = CARTESIAN_POINT ( 'NONE',  ( -12.49999999999999500, -12.50000000000000500, 3.000000000000000000 ) ) ;
#27 = PERSON_AND_ORGANIZATION ( #18, #220 ) ;
#28 = DIRECTION ( 'NONE',  ( 1.000000000000000000, 0.0000000000000000000, -0.0000000000000000000 ) ) ;
#29 = VERTEX_POINT ( 'NONE', #217 ) ;
#30 =( NAMED_UNIT ( * ) PLANE_ANGLE_UNIT ( ) SI_UNIT ( $, .RADIAN. ) );
#31 =( GEOMETRIC_REPRESENTATION_CONTEXT ( 3 ) GLOBAL_UNCERTAINTY_ASSIGNED_CONTEXT ( ( #78 ) ) GLOBAL_UNIT_ASSIGNED_CONTEXT ( ( #208, #30, #48 ) ) REPRESENTATION_CONTEXT ( 'NONE', 'WORKASPACE' ) );
#32 = LOCAL_TIME ( 12, 11, 53.00000000000000000, #97 ) ;
#33 = EDGE_CURVE ( 'NONE', #156, #213, #185, .T. ) ;
#34 = MANIFOLD_SOLID_BREP ( 'Boss-Extrude1', #123 ) ;
#35 = ORIENTED_EDGE ( 'NONE', *, *, #8, .T. ) ;
#36 = PERSON_AND_ORGANIZATION ( #18, #220 ) ;
#37 = CC_DESIGN_APPROVAL ( #190, ( #24 ) ) ;
#38 = VECTOR ( 'NONE', #207, 1000.000000000000000 ) ;
#39 = VERTEX_POINT ( 'NONE', #201 ) ;
#40 = AXIS2_PLACEMENT_3D ( 'NONE', #55, #99, #113 ) ;
#41 = VECTOR ( 'NONE', #83, 1000.000000000000000 ) ;
#42 = DIRECTION ( 'NONE',  ( -1.000000000000000000, -1.387778780781445700E-016, 0.0000000000000000000 ) ) ;
#43 = CC_DESIGN_PERSON_AND_ORGANIZATION_ASSIGNMENT ( #56, #142, ( #202 ) ) ;
#44 = CARTESIAN_POINT ( 'NONE',  ( 12.50000000000000500, -12.50000000000000200, -3.000000000000000000 ) ) ;
#45 = VERTEX_POINT ( 'NONE', #17 ) ;
#46 = EDGE_LOOP ( 'NONE', ( #221, #35, #59, #13 ) ) ;
#47 = CARTESIAN_POINT ( 'NONE',  ( -12.49999999999999500, -12.50000000000000500, -3.000000000000000000 ) ) ;
#48 =( NAMED_UNIT ( * ) SI_UNIT ( $, .STERADIAN. ) SOLID_ANGLE_UNIT ( ) );
#49 = ORIENTED_EDGE ( 'NONE', *, *, #8, .F. ) ;
#50 = APPROVAL ( #12, 'UNSPECIFIED' ) ;
#51 = EDGE_LOOP ( 'NONE', ( #22, #101, #87, #14 ) ) ;
#52 = ADVANCED_FACE ( 'NONE', ( #131 ), #75, .F. ) ;
#53 = AXIS2_PLACEMENT_3D ( 'NONE', #206, #102, #28 ) ;
#54 = VERTEX_POINT ( 'NONE', #237 ) ;
#55 = CARTESIAN_POINT ( 'NONE',  ( 12.50000000000000500, -12.50000000000000200, 3.000000000000000000 ) ) ;
#56 = PERSON_AND_ORGANIZATION ( #18, #220 ) ;
#57 = CC_DESIGN_DATE_AND_TIME_ASSIGNMENT ( #224, #196, ( #202 ) ) ;
#58 = CARTESIAN_POINT ( 'NONE',  ( -12.49999999999999500, -12.50000000000000500, 3.000000000000000000 ) ) ;
#59 = ORIENTED_EDGE ( 'NONE', *, *, #19, .T. ) ;
#60 = DIRECTION ( 'NONE',  ( 1.387778780781445400E-016, -1.000000000000000000, 0.0000000000000000000 ) ) ;
#61 = LINE ( 'NONE', #89, #212 ) ;
#62 = ORIENTED_EDGE ( 'NONE', *, *, #88, .F. ) ;
#63 = DIRECTION ( 'NONE',  ( -0.0000000000000000000, -1.000000000000000000, -0.0000000000000000000 ) ) ;
#64 = APPLICATION_CONTEXT ( 'configuration controlled 3d designs of mechanical parts and assemblies' ) ;
#65 = APPROVAL_STATUS ( 'not_yet_approved' ) ;
#66 = CARTESIAN_POINT ( 'NONE',  ( 12.50000000000000500, 12.49999999999999800, 3.000000000000000000 ) ) ;
#67 = SHAPE_DEFINITION_REPRESENTATION ( #72, #227 ) ;
#68 = VECTOR ( 'NONE', #236, 1000.000000000000000 ) ;
#69 = AXIS2_PLACEMENT_3D ( 'NONE', #186, #60, #103 ) ;
#70 = MECHANICAL_CONTEXT ( 'NONE', #64, 'mechanical' ) ;
#71 = AXIS2_PLACEMENT_3D ( 'NONE', #106, #90, #210 ) ;
#72 = PRODUCT_DEFINITION_SHAPE ( 'NONE', 'NONE',  #24 ) ;
#73 = VERTEX_POINT ( 'NONE', #79 ) ;
#74 = CC_DESIGN_PERSON_AND_ORGANIZATION_ASSIGNMENT ( #234, #174, ( #119 ) ) ;
#75 = PLANE ( 'NONE',  #40 ) ;
#76 = DATE_AND_TIME ( #15, #117 ) ;
#77 = PERSON_AND_ORGANIZATION ( #18, #220 ) ;
#78 = UNCERTAINTY_MEASURE_WITH_UNIT (LENGTH_MEASURE( 1.000000000000000100E-005 ), #208, 'distance_accuracy_value', 'NONE');
#79 = CARTESIAN_POINT ( 'NONE',  ( -12.49999999999999500, 12.49999999999999500, -3.000000000000000000 ) ) ;
#80 = AXIS2_PLACEMENT_3D ( 'NONE', #81, #164, #205 ) ;
#81 = CARTESIAN_POINT ( 'NONE',  ( 0.0000000000000000000, 0.0000000000000000000, -3.000000000000000000 ) ) ;
#82 = VECTOR ( 'NONE', #104, 1000.000000000000000 ) ;
#83 = DIRECTION ( 'NONE',  ( -0.0000000000000000000, -0.0000000000000000000, -1.000000000000000000 ) ) ;
#84 = DIRECTION ( 'NONE',  ( -0.0000000000000000000, -0.0000000000000000000, -1.000000000000000000 ) ) ;
#85 = CALENDAR_DATE ( 2018, 8, 5 ) ;
#86 = VECTOR ( 'NONE', #42, 1000.000000000000000 ) ;
#87 = ORIENTED_EDGE ( 'NONE', *, *, #19, .F. ) ;
#88 = EDGE_CURVE ( 'NONE', #45, #73, #173, .T. ) ;
#89 = CARTESIAN_POINT ( 'NONE',  ( -12.49999999999999500, 12.49999999999999500, 3.000000000000000000 ) ) ;
#90 = DIRECTION ( 'NONE',  ( 0.0000000000000000000, 0.0000000000000000000, 1.000000000000000000 ) ) ;
#91 = ADVANCED_FACE ( 'NONE', ( #171 ), #5, .F. ) ;
#92 = PERSON_AND_ORGANIZATION_ROLE ( 'design_supplier' ) ;
#93 = DESIGN_CONTEXT ( 'detailed design', #118, 'design' ) ;
#94 = SECURITY_CLASSIFICATION_LEVEL ( 'unclassified' ) ;
#95 = LINE ( 'NONE', #98, #195 ) ;
#96 = ADVANCED_FACE ( 'NONE', ( #192 ), #115, .F. ) ;
#97 = COORDINATED_UNIVERSAL_TIME_OFFSET ( 5, 0, .BEHIND. ) ;
#98 = CARTESIAN_POINT ( 'NONE',  ( 12.50000000000000500, -12.50000000000000200, 3.000000000000000000 ) ) ;
#99 = DIRECTION ( 'NONE',  ( -1.387778780781445400E-016, 1.000000000000000000, 0.0000000000000000000 ) ) ;
#100 = FACE_OUTER_BOUND ( 'NONE', #51, .T. ) ;
#101 = ORIENTED_EDGE ( 'NONE', *, *, #191, .F. ) ;
#102 = DIRECTION ( 'NONE',  ( 0.0000000000000000000, -0.0000000000000000000, 1.000000000000000000 ) ) ;
#103 = DIRECTION ( 'NONE',  ( 1.000000000000000000, 1.387778780781445400E-016, 0.0000000000000000000 ) ) ;
#104 = DIRECTION ( 'NONE',  ( -1.000000000000000000, -1.387778780781445700E-016, 0.0000000000000000000 ) ) ;
#105 = ORIENTED_EDGE ( 'NONE', *, *, #33, .T. ) ;
#106 = CARTESIAN_POINT ( 'NONE',  ( 0.0000000000000000000, 0.0000000000000000000, 0.0000000000000000000 ) ) ;
#107 = ADVANCED_FACE ( 'NONE', ( #100 ), #132, .F. ) ;
#108 = APPROVAL_PERSON_ORGANIZATION ( #154, #179, #189 ) ;
#109 = LINE ( 'NONE', #44, #200 ) ;
#110 = ORIENTED_EDGE ( 'NONE', *, *, #204, .F. ) ;
#111 = ADVANCED_FACE ( 'NONE', ( #126 ), #218, .F. ) ;
#112 = PRODUCT ( 'Web Model 37128MX_37131', 'Web Model 37128MX_37131', '', ( #70 ) ) ;
#113 = DIRECTION ( 'NONE',  ( -1.000000000000000000, -1.387778780781445400E-016, 0.0000000000000000000 ) ) ;
#114 = LINE ( 'NONE', #47, #21 ) ;
#115 = PLANE ( 'NONE',  #80 ) ;
#116 = CARTESIAN_POINT ( 'NONE',  ( -12.49999999999999500, -12.50000000000000500, 3.000000000000000000 ) ) ;
#117 = LOCAL_TIME ( 12, 11, 53.00000000000000000, #198 ) ;
#118 = APPLICATION_CONTEXT ( 'configuration controlled 3d designs of mechanical parts and assemblies' ) ;
#119 = PRODUCT_DEFINITION_FORMATION_WITH_SPECIFIED_SOURCE ( 'ANY', '', #112, .NOT_KNOWN. ) ;
#120 = APPLICATION_PROTOCOL_DEFINITION ( 'international standard', 'config_control_design', 1994, #118 ) ;
#121 = CARTESIAN_POINT ( 'NONE',  ( 12.50000000000000500, 12.49999999999999800, 3.000000000000000000 ) ) ;
#122 = LINE ( 'NONE', #155, #11 ) ;
#123 = CLOSED_SHELL ( 'NONE', ( #111, #52, #107, #91, #125, #96 ) ) ;
#124 = ORIENTED_EDGE ( 'NONE', *, *, #204, .T. ) ;
#125 = ADVANCED_FACE ( 'NONE', ( #216 ), #219, .T. ) ;
#126 = FACE_OUTER_BOUND ( 'NONE', #209, .T. ) ;
#127 = CC_DESIGN_PERSON_AND_ORGANIZATION_ASSIGNMENT ( #183, #92, ( #119 ) ) ;
#128 = CARTESIAN_POINT ( 'NONE',  ( 12.50000000000000500, -12.50000000000000200, 3.000000000000000000 ) ) ;
#129 = CALENDAR_DATE ( 2018, 8, 5 ) ;
#130 = DIRECTION ( 'NONE',  ( 0.0000000000000000000, 1.000000000000000000, 0.0000000000000000000 ) ) ;
#131 = FACE_OUTER_BOUND ( 'NONE', #150, .T. ) ;
#132 = PLANE ( 'NONE',  #225 ) ;
#133 = DIRECTION ( 'NONE',  ( 1.000000000000000000, 0.0000000000000000000, 0.0000000000000000000 ) ) ;
#134 = PERSON_AND_ORGANIZATION ( #18, #220 ) ;
#135 = LINE ( 'NONE', #121, #82 ) ;
#136 = APPROVAL_STATUS ( 'not_yet_approved' ) ;
#137 = APPROVAL_ROLE ( '' ) ;
#138 = APPLICATION_PROTOCOL_DEFINITION ( 'international standard', 'config_control_design', 1994, #64 ) ;
#139 = ORIENTED_EDGE ( 'NONE', *, *, #33, .F. ) ;
#140 = EDGE_LOOP ( 'NONE', ( #7, #175, #146, #214 ) ) ;
#141 = CALENDAR_DATE ( 2018, 8, 5 ) ;
#142 = PERSON_AND_ORGANIZATION_ROLE ( 'classification_officer' ) ;
#143 = ORIENTED_EDGE ( 'NONE', *, *, #233, .F. ) ;
#144 = EDGE_CURVE ( 'NONE', #178, #39, #160, .T. ) ;
#145 = APPROVAL_DATE_TIME ( #3, #179 ) ;
#146 = ORIENTED_EDGE ( 'NONE', *, *, #230, .F. ) ;
#147 = CARTESIAN_POINT ( 'NONE',  ( 12.50000000000000500, 12.49999999999999800, -3.000000000000000000 ) ) ;
#148 = DIRECTION ( 'NONE',  ( -1.000000000000000000, 0.0000000000000000000, 0.0000000000000000000 ) ) ;
#149 = CALENDAR_DATE ( 2018, 8, 5 ) ;
#150 = EDGE_LOOP ( 'NONE', ( #232, #151, #49, #105 ) ) ;
#151 = ORIENTED_EDGE ( 'NONE', *, *, #144, .F. ) ;
#152 = PERSON_AND_ORGANIZATION_ROLE ( 'creator' ) ;
#153 = LOCAL_TIME ( 12, 11, 53.00000000000000000, #182 ) ;
#154 = PERSON_AND_ORGANIZATION ( #18, #220 ) ;
#155 = CARTESIAN_POINT ( 'NONE',  ( -12.49999999999999500, -12.50000000000000500, 3.000000000000000000 ) ) ;
#156 = VERTEX_POINT ( 'NONE', #26 ) ;
#157 = APPROVAL_DATE_TIME ( #20, #190 ) ;
#158 = LINE ( 'NONE', #128, #68 ) ;
#159 = DIRECTION ( 'NONE',  ( -0.0000000000000000000, -0.0000000000000000000, -1.000000000000000000 ) ) ;
#160 = LINE ( 'NONE', #10, #16 ) ;
#161 = CC_DESIGN_APPROVAL ( #50, ( #202 ) ) ;
#162 = LOCAL_TIME ( 12, 11, 53.00000000000000000, #25 ) ;
#163 = LINE ( 'NONE', #187, #38 ) ;
#164 = DIRECTION ( 'NONE',  ( 0.0000000000000000000, -0.0000000000000000000, 1.000000000000000000 ) ) ;
#165 = EDGE_CURVE ( 'NONE', #29, #73, #61, .T. ) ;
#166 = DIRECTION ( 'NONE',  ( 0.0000000000000000000, 0.0000000000000000000, -1.000000000000000000 ) ) ;
#167 = CC_DESIGN_APPROVAL ( #179, ( #119 ) ) ;
#168 = DIRECTION ( 'NONE',  ( -0.0000000000000000000, -0.0000000000000000000, -1.000000000000000000 ) ) ;
#169 = APPROVAL_PERSON_ORGANIZATION ( #27, #50, #231 ) ;
#170 = DATE_TIME_ROLE ( 'creation_date' ) ;
#171 = FACE_OUTER_BOUND ( 'NONE', #140, .T. ) ;
#172 = CARTESIAN_POINT ( 'NONE',  ( -12.49999999999999500, -12.50000000000000500, -3.000000000000000000 ) ) ;
#173 = LINE ( 'NONE', #147, #86 ) ;
#174 = PERSON_AND_ORGANIZATION_ROLE ( 'creator' ) ;
#175 = ORIENTED_EDGE ( 'NONE', *, *, #165, .F. ) ;
#176 = CC_DESIGN_PERSON_AND_ORGANIZATION_ASSIGNMENT ( #134, #223, ( #112 ) ) ;
#177 = VECTOR ( 'NONE', #159, 1000.000000000000000 ) ;
#178 = VERTEX_POINT ( 'NONE', #6 ) ;
#179 = APPROVAL ( #65, 'UNSPECIFIED' ) ;
#180 = EDGE_CURVE ( 'NONE', #29, #156, #122, .T. ) ;
#181 = CC_DESIGN_SECURITY_CLASSIFICATION ( #202, ( #119 ) ) ;
#182 = COORDINATED_UNIVERSAL_TIME_OFFSET ( 5, 0, .BEHIND. ) ;
#183 = PERSON_AND_ORGANIZATION ( #18, #220 ) ;
#184 = LINE ( 'NONE', #66, #41 ) ;
#185 = LINE ( 'NONE', #58, #177 ) ;
#186 = CARTESIAN_POINT ( 'NONE',  ( 12.50000000000000500, 12.49999999999999800, 3.000000000000000000 ) ) ;
#187 = CARTESIAN_POINT ( 'NONE',  ( 12.50000000000000500, -12.50000000000000200, -3.000000000000000000 ) ) ;
#188 = APPROVAL_PERSON_ORGANIZATION ( #77, #190, #137 ) ;
#189 = APPROVAL_ROLE ( '' ) ;
#190 = APPROVAL ( #136, 'UNSPECIFIED' ) ;
#191 = EDGE_CURVE ( 'NONE', #54, #45, #184, .T. ) ;
#192 = FACE_OUTER_BOUND ( 'NONE', #197, .T. ) ;
#193 = ORIENTED_EDGE ( 'NONE', *, *, #165, .T. ) ;
#194 = CC_DESIGN_PERSON_AND_ORGANIZATION_ASSIGNMENT ( #36, #152, ( #24 ) ) ;
#195 = VECTOR ( 'NONE', #130, 1000.000000000000000 ) ;
#196 = DATE_TIME_ROLE ( 'classification_date' ) ;
#197 = EDGE_LOOP ( 'NONE', ( #110, #62, #143, #4 ) ) ;
#198 = COORDINATED_UNIVERSAL_TIME_OFFSET ( 5, 0, .BEHIND. ) ;
#199 = LOCAL_TIME ( 12, 11, 53.00000000000000000, #9 ) ;
#200 = VECTOR ( 'NONE', #229, 1000.000000000000000 ) ;
#201 = CARTESIAN_POINT ( 'NONE',  ( 12.50000000000000500, -12.50000000000000200, -3.000000000000000000 ) ) ;
#202 = SECURITY_CLASSIFICATION ( '', '', #94 ) ;
#203 = DATE_AND_TIME ( #141, #32 ) ;
#204 = EDGE_CURVE ( 'NONE', #73, #213, #114, .T. ) ;
#205 = DIRECTION ( 'NONE',  ( 1.000000000000000000, 0.0000000000000000000, -0.0000000000000000000 ) ) ;
#206 = CARTESIAN_POINT ( 'NONE',  ( 0.0000000000000000000, 0.0000000000000000000, 3.000000000000000000 ) ) ;
#207 = DIRECTION ( 'NONE',  ( 1.000000000000000000, 1.387778780781445700E-016, -0.0000000000000000000 ) ) ;
#208 =( LENGTH_UNIT ( ) NAMED_UNIT ( * ) SI_UNIT ( .MILLI., .METRE. ) );
#209 = EDGE_LOOP ( 'NONE', ( #124, #139, #226, #193 ) ) ;
#210 = DIRECTION ( 'NONE',  ( 1.000000000000000000, 0.0000000000000000000, 0.0000000000000000000 ) ) ;
#211 = PRODUCT_RELATED_PRODUCT_CATEGORY ( 'detail', '', ( #112 ) ) ;
#212 = VECTOR ( 'NONE', #84, 1000.000000000000000 ) ;
#213 = VERTEX_POINT ( 'NONE', #172 ) ;
#214 = ORIENTED_EDGE ( 'NONE', *, *, #191, .T. ) ;
#215 = EDGE_CURVE ( 'NONE', #213, #39, #163, .T. ) ;
#216 = FACE_OUTER_BOUND ( 'NONE', #46, .T. ) ;
#217 = CARTESIAN_POINT ( 'NONE',  ( -12.49999999999999500, 12.49999999999999500, 3.000000000000000000 ) ) ;
#218 = PLANE ( 'NONE',  #235 ) ;
#219 = PLANE ( 'NONE',  #53 ) ;
#220 = ORGANIZATION ( 'UNSPECIFIED', 'UNSPECIFIED', '' ) ;
#221 = ORIENTED_EDGE ( 'NONE', *, *, #180, .T. ) ;
#222 = DIRECTION ( 'NONE',  ( -0.0000000000000000000, -1.000000000000000000, -0.0000000000000000000 ) ) ;
#223 = PERSON_AND_ORGANIZATION_ROLE ( 'design_owner' ) ;
#224 = DATE_AND_TIME ( #129, #153 ) ;
#225 = AXIS2_PLACEMENT_3D ( 'NONE', #1, #148, #23 ) ;
#226 = ORIENTED_EDGE ( 'NONE', *, *, #180, .F. ) ;
#227 = ADVANCED_BREP_SHAPE_REPRESENTATION ( 'Web Model 37128MX_37131', ( #34, #71 ), #31 ) ;
#228 = CC_DESIGN_DATE_AND_TIME_ASSIGNMENT ( #203, #170, ( #24 ) ) ;
#229 = DIRECTION ( 'NONE',  ( 0.0000000000000000000, 1.000000000000000000, 0.0000000000000000000 ) ) ;
#230 = EDGE_CURVE ( 'NONE', #54, #29, #135, .T. ) ;
#231 = APPROVAL_ROLE ( '' ) ;
#232 = ORIENTED_EDGE ( 'NONE', *, *, #215, .T. ) ;
#233 = EDGE_CURVE ( 'NONE', #39, #45, #109, .T. ) ;
#234 = PERSON_AND_ORGANIZATION ( #18, #220 ) ;
#235 = AXIS2_PLACEMENT_3D ( 'NONE', #116, #133, #166 ) ;
#236 = DIRECTION ( 'NONE',  ( 1.000000000000000000, 1.387778780781445700E-016, -0.0000000000000000000 ) ) ;
#237 = CARTESIAN_POINT ( 'NONE',  ( 12.50000000000000500, 12.49999999999999800, 3.000000000000000000 ) ) ;
ENDSEC;
END-ISO-10303-21;
