ISO-10303-21;
HEADER;
FILE_DESCRIPTION (( 'STEP AP203' ),
    '1' );
FILE_NAME ('4222-E0W.STEP',
    '2015-11-16T21:54:43',
    ( 'admin' ),
    ( '' ),
    'SwSTEP 2.0',
    'SolidWorks 2014',
    '' );
FILE_SCHEMA (( 'CONFIG_CONTROL_DESIGN' ));
ENDSEC;

DATA;
#1 = EDGE_LOOP ( 'NONE', ( #10, #201, #200 ) ) ;
#2 = DIRECTION ( 'NONE',  ( -1.000000000000000000, -1.224646799147353900E-016, -0.0000000000000000000 ) ) ;
#3 = CARTESIAN_POINT ( 'NONE',  ( -0.04817577600258606000, -6.194911854720191800E-017, 0.0000000000000000000 ) ) ;
#4 = ORIENTED_EDGE ( 'NONE', *, *, #29, .T. ) ;
#5 = CIRCLE ( 'NONE', #167, 0.4930402875867464500 ) ;
#6 = ADVANCED_FACE ( 'NONE', ( #115 ), #44, .T. ) ;
#7 = CARTESIAN_POINT ( 'NONE',  ( 0.09801411788337306700, 0.4930402875867464000, 6.038002100437995100E-017 ) ) ;
#8 = EDGE_CURVE ( 'NONE', #48, #72, #285, .T. ) ;
#9 = ORIENTED_EDGE ( 'NONE', *, *, #8, .F. ) ;
#10 = ORIENTED_EDGE ( 'NONE', *, *, #193, .F. ) ;
#11 = APPROVAL_ROLE ( '' ) ;
#12 = VERTEX_POINT ( 'NONE', #34 ) ;
#13 = EDGE_CURVE ( 'NONE', #48, #301, #141, .T. ) ;
#14 = DIRECTION ( 'NONE',  ( -1.000000000000000000, -1.224646799147353900E-016, -0.0000000000000000000 ) ) ;
#15 = CARTESIAN_POINT ( 'NONE',  ( 0.09801411788337313600, -4.404601998568879100E-017, 0.0000000000000000000 ) ) ;
#16 = ORIENTED_EDGE ( 'NONE', *, *, #241, .T. ) ;
#17 = LINE ( 'NONE', #287, #263 ) ;
#18 = DIRECTION ( 'NONE',  ( 1.365923996832131900E-016, -1.000000000000000000, 0.0000000000000000000 ) ) ;
#19 = PERSON_AND_ORGANIZATION_ROLE ( 'design_supplier' ) ;
#20 = DIRECTION ( 'NONE',  ( 0.0000000000000000000, 1.000000000000000000, -6.982962677686265900E-015 ) ) ;
#21 = CARTESIAN_POINT ( 'NONE',  ( 7.805072067069135100, 9.006561354111868800E-016, 0.0000000000000000000 ) ) ;
#22 = ORIENTED_EDGE ( 'NONE', *, *, #203, .F. ) ;
#23 = CIRCLE ( 'NONE', #28, 7.874015748031498100 ) ;
#24 = ADVANCED_FACE ( 'NONE', ( #230 ), #132, .T. ) ;
#25 = AXIS2_PLACEMENT_3D ( 'NONE', #54, #321, #298 ) ;
#26 = DIRECTION ( 'NONE',  ( -1.000000000000000000, -1.224646799147353900E-016, -0.0000000000000000000 ) ) ;
#27 = CARTESIAN_POINT ( 'NONE',  ( -0.04817577600258606000, -6.194911854720191800E-017, 0.0000000000000000000 ) ) ;
#28 = AXIS2_PLACEMENT_3D ( 'NONE', #69, #59, #310 ) ;
#29 = EDGE_CURVE ( 'NONE', #12, #129, #90, .T. ) ;
#30 = VERTEX_POINT ( 'NONE', #144 ) ;
#31 = CARTESIAN_POINT ( 'NONE',  ( -0.04817577600258599700, -0.5000000000000000000, 6.123233995736764800E-017 ) ) ;
#32 = APPROVAL ( #138, 'UNSPECIFIED' ) ;
#33 = DIRECTION ( 'NONE',  ( 1.385205257280124700E-016, -1.000000000000000000, 0.0000000000000000000 ) ) ;
#34 = CARTESIAN_POINT ( 'NONE',  ( 0.09105440547011974000, -0.5000000000000000000, 0.0000000000000000000 ) ) ;
#35 = AXIS2_PLACEMENT_3D ( 'NONE', #143, #236, #268 ) ;
#36 = DIRECTION ( 'NONE',  ( -1.000000000000000000, -1.224646799147353900E-016, -0.0000000000000000000 ) ) ;
#37 = AXIS2_PLACEMENT_3D ( 'NONE', #123, #225, #152 ) ;
#38 = ORIENTED_EDGE ( 'NONE', *, *, #177, .F. ) ;
#39 = ORIENTED_EDGE ( 'NONE', *, *, #8, .T. ) ;
#40 = CARTESIAN_POINT ( 'NONE',  ( -0.05513548841583948400, -6.280143750018961500E-017, 0.0000000000000000000 ) ) ;
#41 = CALENDAR_DATE ( 2015, 16, 11 ) ;
#42 =( GEOMETRIC_REPRESENTATION_CONTEXT ( 3 ) GLOBAL_UNCERTAINTY_ASSIGNED_CONTEXT ( ( #292 ) ) GLOBAL_UNIT_ASSIGNED_CONTEXT ( ( #124, #161, #113 ) ) REPRESENTATION_CONTEXT ( 'NONE', 'WORKASPACE' ) );
#43 = CARTESIAN_POINT ( 'NONE',  ( -0.06889763779527571800, 0.4999999999999998300, 6.123233995736764800E-017 ) ) ;
#44 = CYLINDRICAL_SURFACE ( 'NONE', #92, 0.4999999999999999400 ) ;
#45 = DATE_AND_TIME ( #223, #94 ) ;
#46 = AXIS2_PLACEMENT_3D ( 'NONE', #316, #2, #328 ) ;
#47 = VERTEX_POINT ( 'NONE', #82 ) ;
#48 = VERTEX_POINT ( 'NONE', #163 ) ;
#49 = DIRECTION ( 'NONE',  ( 0.7071067811865456900, 0.7071067811865493500, 0.0000000000000000000 ) ) ;
#50 = CC_DESIGN_APPROVAL ( #256, ( #165 ) ) ;
#51 = DIRECTION ( 'NONE',  ( -1.195183497228115300E-016, 1.000000000000000000, 0.0000000000000000000 ) ) ;
#52 = DIRECTION ( 'NONE',  ( 1.000000000000000000, 1.224646799147353900E-016, 0.0000000000000000000 ) ) ;
#53 = DIRECTION ( 'NONE',  ( -1.000000000000000000, -1.224646799147353900E-016, -0.0000000000000000000 ) ) ;
#54 = CARTESIAN_POINT ( 'NONE',  ( 7.805072067069135100, 9.006561354111868800E-016, 0.0000000000000000000 ) ) ;
#55 = CARTESIAN_POINT ( 'NONE',  ( -0.04817577600258599700, -0.5000000000000000000, 6.123233995736764800E-017 ) ) ;
#56 = CC_DESIGN_PERSON_AND_ORGANIZATION_ASSIGNMENT ( #249, #269, ( #267 ) ) ;
#57 = PRODUCT ( '4222-E0W', '4222-E0W', '', ( #312 ) ) ;
#58 = DIRECTION ( 'NONE',  ( 1.385205257280124700E-016, -1.000000000000000000, 0.0000000000000000000 ) ) ;
#59 = DIRECTION ( 'NONE',  ( 0.0000000000000000000, 0.0000000000000000000, -1.000000000000000000 ) ) ;
#60 = DATE_AND_TIME ( #242, #183 ) ;
#61 = DATE_AND_TIME ( #149, #270 ) ;
#62 = FACE_OUTER_BOUND ( 'NONE', #320, .T. ) ;
#63 = ORIENTED_EDGE ( 'NONE', *, *, #241, .F. ) ;
#64 = FACE_OUTER_BOUND ( 'NONE', #185, .T. ) ;
#65 = CARTESIAN_POINT ( 'NONE',  ( -0.04817577600258611500, 0.4999999999999998300, 0.0000000000000000000 ) ) ;
#66 = DIRECTION ( 'NONE',  ( 0.7071067811865459100, -0.7071067811865491300, 8.659560562354953800E-017 ) ) ;
#67 = ORIENTED_EDGE ( 'NONE', *, *, #190, .F. ) ;
#68 = CARTESIAN_POINT ( 'NONE',  ( 0.06889763779527564900, 2.733758799671456900E-016, -1.850054629543607700E-030 ) ) ;
#69 = CARTESIAN_POINT ( 'NONE',  ( 7.805072067069135100, -0.02692744186700272600, 0.0000000000000000000 ) ) ;
#70 = LINE ( 'NONE', #55, #221 ) ;
#71 = CARTESIAN_POINT ( 'NONE',  ( 7.805072067069135100, 0.02692744186700453100, 3.297660549165242300E-018 ) ) ;
#72 = VERTEX_POINT ( 'NONE', #68 ) ;
#73 = EDGE_LOOP ( 'NONE', ( #317, #196, #88 ) ) ;
#74 = DIRECTION ( 'NONE',  ( -8.401686913527736900E-031, 6.860497997771531600E-015, 1.000000000000000000 ) ) ;
#75 = EDGE_LOOP ( 'NONE', ( #145, #233, #243, #63 ) ) ;
#76 = VECTOR ( 'NONE', #211, 39.37007874015748100 ) ;
#77 = CARTESIAN_POINT ( 'NONE',  ( 4.257874015748032400, 1.042878356911703600E-015, -3.641190321840601500E-030 ) ) ;
#78 = VECTOR ( 'NONE', #14, 39.37007874015748100 ) ;
#79 = AXIS2_PLACEMENT_3D ( 'NONE', #27, #52, #51 ) ;
#80 = EDGE_CURVE ( 'NONE', #129, #30, #218, .T. ) ;
#81 = ADVANCED_FACE ( 'NONE', ( #293 ), #245, .T. ) ;
#82 = CARTESIAN_POINT ( 'NONE',  ( -0.05513548841583929700, -0.4930402875867471200, 0.0000000000000000000 ) ) ;
#83 = DIRECTION ( 'NONE',  ( 1.195183497228115300E-016, -1.000000000000000000, 0.0000000000000000000 ) ) ;
#84 = AXIS2_PLACEMENT_3D ( 'NONE', #134, #182, #240 ) ;
#85 = EDGE_CURVE ( 'NONE', #106, #30, #324, .T. ) ;
#86 = SHAPE_DEFINITION_REPRESENTATION ( #290, #286 ) ;
#87 = PERSON_AND_ORGANIZATION ( #325, #311 ) ;
#88 = ORIENTED_EDGE ( 'NONE', *, *, #171, .F. ) ;
#89 = TOROIDAL_SURFACE ( 'NONE', #279, 0.02692744186700362800, 7.874015748031498100 ) ;
#90 = CIRCLE ( 'NONE', #186, 0.4999999999999999400 ) ;
#91 = APPROVAL_DATE_TIME ( #61, #32 ) ;
#92 = AXIS2_PLACEMENT_3D ( 'NONE', #160, #213, #330 ) ;
#93 = CC_DESIGN_PERSON_AND_ORGANIZATION_ASSIGNMENT ( #87, #19, ( #267 ) ) ;
#94 = LOCAL_TIME ( 16, 54, 43.00000000000000000, #169 ) ;
#95 = ORIENTED_EDGE ( 'NONE', *, *, #248, .F. ) ;
#96 = DATE_TIME_ROLE ( 'creation_date' ) ;
#97 = AXIS2_PLACEMENT_3D ( 'NONE', #146, #300, #288 ) ;
#98 = COORDINATED_UNIVERSAL_TIME_OFFSET ( 5, 0, .BEHIND. ) ;
#99 = DIRECTION ( 'NONE',  ( -1.000000000000000000, -1.224646799147353900E-016, -0.0000000000000000000 ) ) ;
#100 = VECTOR ( 'NONE', #142, 39.37007874015748100 ) ;
#101 = MANIFOLD_SOLID_BREP ( '4222-001-1-solid1', #282 ) ;
#102 = CARTESIAN_POINT ( 'NONE',  ( -0.05513548841583935900, 0.4930402875867470100, 6.038002100438002500E-017 ) ) ;
#103 = CARTESIAN_POINT ( 'NONE',  ( 0.09105440547011960100, 0.4999999999999998300, 6.123233995736764800E-017 ) ) ;
#104 = AXIS2_PLACEMENT_3D ( 'NONE', #3, #99, #83 ) ;
#105 = EDGE_CURVE ( 'NONE', #47, #291, #209, .T. ) ;
#106 = VERTEX_POINT ( 'NONE', #31 ) ;
#107 = DESIGN_CONTEXT ( 'detailed design', #275, 'design' ) ;
#108 = APPROVAL_ROLE ( '' ) ;
#109 = FACE_OUTER_BOUND ( 'NONE', #1, .T. ) ;
#110 = ADVANCED_FACE ( 'NONE', ( #265 ), #197, .T. ) ;
#111 = AXIS2_PLACEMENT_3D ( 'NONE', #148, #126, #20 ) ;
#112 = ORIENTED_EDGE ( 'NONE', *, *, #147, .F. ) ;
#113 =( NAMED_UNIT ( * ) SI_UNIT ( $, .STERADIAN. ) SOLID_ANGLE_UNIT ( ) );
#114 = EDGE_LOOP ( 'NONE', ( #95, #67, #16, #306 ) ) ;
#115 = FACE_OUTER_BOUND ( 'NONE', #162, .T. ) ;
#116 = CC_DESIGN_PERSON_AND_ORGANIZATION_ASSIGNMENT ( #304, #153, ( #57 ) ) ;
#117 = LOCAL_TIME ( 16, 54, 43.00000000000000000, #207 ) ;
#118 = CIRCLE ( 'NONE', #150, 7.874015748031498100 ) ;
#119 = EDGE_LOOP ( 'NONE', ( #4, #239, #272, #224 ) ) ;
#120 = AXIS2_PLACEMENT_3D ( 'NONE', #15, #305, #58 ) ;
#121 = ORIENTED_EDGE ( 'NONE', *, *, #13, .T. ) ;
#122 = EDGE_CURVE ( 'NONE', #48, #12, #140, .T. ) ;
#123 = CARTESIAN_POINT ( 'NONE',  ( -0.04817577600258606000, -6.194911854720191800E-017, 0.0000000000000000000 ) ) ;
#124 =( CONVERSION_BASED_UNIT ( 'INCH', #327 ) LENGTH_UNIT ( ) NAMED_UNIT ( #254 ) );
#125 = PERSON_AND_ORGANIZATION_ROLE ( 'classification_officer' ) ;
#126 = DIRECTION ( 'NONE',  ( 8.551662891793922500E-031, -6.982962677686266700E-015, -1.000000000000000000 ) ) ;
#127 = CC_DESIGN_APPROVAL ( #135, ( #267 ) ) ;
#128 = VECTOR ( 'NONE', #49, 39.37007874015748100 ) ;
#129 = VERTEX_POINT ( 'NONE', #103 ) ;
#130 = ADVANCED_FACE ( 'NONE', ( #109 ), #89, .T. ) ;
#131 = AXIS2_PLACEMENT_3D ( 'NONE', #178, #74, #191 ) ;
#132 = CYLINDRICAL_SURFACE ( 'NONE', #159, 0.4999999999999999400 ) ;
#133 = CARTESIAN_POINT ( 'NONE',  ( 0.09105440547011967000, -4.489833893867648800E-017, 0.0000000000000000000 ) ) ;
#134 = CARTESIAN_POINT ( 'NONE',  ( -0.04817577600258606000, -6.194911854720191800E-017, 0.0000000000000000000 ) ) ;
#135 = APPROVAL ( #198, 'UNSPECIFIED' ) ;
#136 = EDGE_LOOP ( 'NONE', ( #121, #170, #302, #276 ) ) ;
#137 = AXIS2_PLACEMENT_3D ( 'NONE', #215, #53, #252 ) ;
#138 = APPROVAL_STATUS ( 'not_yet_approved' ) ;
#139 = EDGE_LOOP ( 'NONE', ( #22, #232, #39 ) ) ;
#140 = LINE ( 'NONE', #315, #76 ) ;
#141 = CIRCLE ( 'NONE', #222, 0.4930402875867464500 ) ;
#142 = DIRECTION ( 'NONE',  ( -0.7071067811865476800, 0.7071067811865473500, 8.659560562354931600E-017 ) ) ;
#143 = CARTESIAN_POINT ( 'NONE',  ( 0.0000000000000000000, 0.0000000000000000000, 0.0000000000000000000 ) ) ;
#144 = CARTESIAN_POINT ( 'NONE',  ( -0.04817577600258611500, 0.4999999999999998300, 0.0000000000000000000 ) ) ;
#145 = ORIENTED_EDGE ( 'NONE', *, *, #105, .F. ) ;
#146 = CARTESIAN_POINT ( 'NONE',  ( 4.257874015748032400, 1.042878356911703600E-015, -3.641190321840601500E-030 ) ) ;
#147 = EDGE_CURVE ( 'NONE', #301, #48, #227, .T. ) ;
#148 = CARTESIAN_POINT ( 'NONE',  ( 4.257874015748032400, 1.042878356911703600E-015, -3.641190321840601500E-030 ) ) ;
#149 = CALENDAR_DATE ( 2015, 16, 11 ) ;
#150 = AXIS2_PLACEMENT_3D ( 'NONE', #71, #204, #259 ) ;
#151 = PERSON_AND_ORGANIZATION_ROLE ( 'creator' ) ;
#152 = DIRECTION ( 'NONE',  ( -1.195183497228115300E-016, 1.000000000000000000, 0.0000000000000000000 ) ) ;
#153 = PERSON_AND_ORGANIZATION_ROLE ( 'design_owner' ) ;
#154 = EDGE_CURVE ( 'NONE', #129, #12, #217, .T. ) ;
#155 = VERTEX_POINT ( 'NONE', #237 ) ;
#156 = ADVANCED_FACE ( 'NONE', ( #64 ), #206, .T. ) ;
#157 = PERSON_AND_ORGANIZATION ( #325, #311 ) ;
#158 = FACE_OUTER_BOUND ( 'NONE', #75, .T. ) ;
#159 = AXIS2_PLACEMENT_3D ( 'NONE', #174, #278, #202 ) ;
#160 = CARTESIAN_POINT ( 'NONE',  ( -0.06889763779527564900, -6.448681471888103000E-017, 0.0000000000000000000 ) ) ;
#161 =( NAMED_UNIT ( * ) PLANE_ANGLE_UNIT ( ) SI_UNIT ( $, .RADIAN. ) );
#162 = EDGE_LOOP ( 'NONE', ( #319, #188, #257, #38 ) ) ;
#163 = CARTESIAN_POINT ( 'NONE',  ( 0.09801411788337320600, -0.4930402875867465100, 0.0000000000000000000 ) ) ;
#164 = DIRECTION ( 'NONE',  ( -8.551662891793922500E-031, 6.982962677686266700E-015, 1.000000000000000000 ) ) ;
#165 = SECURITY_CLASSIFICATION ( '', '', #208 ) ;
#166 = LOCAL_TIME ( 16, 54, 43.00000000000000000, #98 ) ;
#167 = AXIS2_PLACEMENT_3D ( 'NONE', #40, #235, #168 ) ;
#168 = DIRECTION ( 'NONE',  ( 1.212054600120109100E-016, -1.000000000000000000, 0.0000000000000000000 ) ) ;
#169 = COORDINATED_UNIVERSAL_TIME_OFFSET ( 5, 0, .BEHIND. ) ;
#170 = ORIENTED_EDGE ( 'NONE', *, *, #214, .T. ) ;
#171 = EDGE_CURVE ( 'NONE', #47, #155, #23, .T. ) ;
#172 = FACE_OUTER_BOUND ( 'NONE', #139, .T. ) ;
#173 = APPROVAL_ROLE ( '' ) ;
#174 = CARTESIAN_POINT ( 'NONE',  ( -0.06889763779527564900, -6.448681471888103000E-017, 0.0000000000000000000 ) ) ;
#175 = AXIS2_PLACEMENT_3D ( 'NONE', #77, #164, #280 ) ;
#176 = CC_DESIGN_SECURITY_CLASSIFICATION ( #165, ( #267 ) ) ;
#177 = EDGE_CURVE ( 'NONE', #30, #106, #303, .T. ) ;
#178 = CARTESIAN_POINT ( 'NONE',  ( 4.257874015748032400, 1.042878356911703600E-015, -3.641190321840601500E-030 ) ) ;
#179 = ORIENTED_EDGE ( 'NONE', *, *, #154, .F. ) ;
#180 = CARTESIAN_POINT ( 'NONE',  ( 0.09801411788337313600, -4.404601998568879100E-017, 0.0000000000000000000 ) ) ;
#181 = EDGE_CURVE ( 'NONE', #12, #106, #17, .T. ) ;
#182 = DIRECTION ( 'NONE',  ( -1.000000000000000000, -1.224646799147353900E-016, -0.0000000000000000000 ) ) ;
#183 = LOCAL_TIME ( 16, 54, 43.00000000000000000, #295 ) ;
#184 = APPLICATION_CONTEXT ( 'configuration controlled 3d designs of mechanical parts and assemblies' ) ;
#185 = EDGE_LOOP ( 'NONE', ( #307, #216, #192, #179 ) ) ;
#186 = AXIS2_PLACEMENT_3D ( 'NONE', #133, #261, #18 ) ;
#187 = TOROIDAL_SURFACE ( 'NONE', #25, 0.02692744186700362800, 7.874015748031498100 ) ;
#188 = ORIENTED_EDGE ( 'NONE', *, *, #154, .T. ) ;
#189 = CC_DESIGN_PERSON_AND_ORGANIZATION_ASSIGNMENT ( #231, #125, ( #165 ) ) ;
#190 = EDGE_CURVE ( 'NONE', #291, #47, #5, .T. ) ;
#191 = DIRECTION ( 'NONE',  ( 0.0000000000000000000, -1.000000000000000000, 6.860497997771532400E-015 ) ) ;
#192 = ORIENTED_EDGE ( 'NONE', *, *, #122, .T. ) ;
#193 = EDGE_CURVE ( 'NONE', #291, #155, #118, .T. ) ;
#194 = COORDINATED_UNIVERSAL_TIME_OFFSET ( 5, 0, .BEHIND. ) ;
#195 = CIRCLE ( 'NONE', #131, 4.188976377952756500 ) ;
#196 = ORIENTED_EDGE ( 'NONE', *, *, #193, .T. ) ;
#197 = CONICAL_SURFACE ( 'NONE', #318, 0.4930402875867464500, 0.7853981633974482800 ) ;
#198 = APPROVAL_STATUS ( 'not_yet_approved' ) ;
#199 = ADVANCED_FACE ( 'NONE', ( #62 ), #210, .F. ) ;
#200 = ORIENTED_EDGE ( 'NONE', *, *, #171, .T. ) ;
#201 = ORIENTED_EDGE ( 'NONE', *, *, #190, .T. ) ;
#202 = DIRECTION ( 'NONE',  ( 1.195183497228115300E-016, -1.000000000000000000, 0.0000000000000000000 ) ) ;
#203 = EDGE_CURVE ( 'NONE', #301, #72, #195, .T. ) ;
#204 = DIRECTION ( 'NONE',  ( 1.499759782661858700E-032, -1.224646799147353200E-016, 1.000000000000000000 ) ) ;
#205 = APPROVAL_PERSON_ORGANIZATION ( #250, #32, #173 ) ;
#206 = CONICAL_SURFACE ( 'NONE', #120, 0.4930402875867464500, 0.7853981633974482800 ) ;
#207 = COORDINATED_UNIVERSAL_TIME_OFFSET ( 5, 0, .BEHIND. ) ;
#208 = SECURITY_CLASSIFICATION_LEVEL ( 'unclassified' ) ;
#209 = CIRCLE ( 'NONE', #46, 0.4930402875867464500 ) ;
#210 = SPHERICAL_SURFACE ( 'NONE', #97, 4.188976377952756500 ) ;
#211 = DIRECTION ( 'NONE',  ( -0.7071067811865474600, -0.7071067811865475700, 0.0000000000000000000 ) ) ;
#212 = CC_DESIGN_DATE_AND_TIME_ASSIGNMENT ( #329, #96, ( #226 ) ) ;
#213 = DIRECTION ( 'NONE',  ( -1.000000000000000000, -1.224646799147353900E-016, -0.0000000000000000000 ) ) ;
#214 = EDGE_CURVE ( 'NONE', #301, #129, #323, .T. ) ;
#215 = CARTESIAN_POINT ( 'NONE',  ( 0.09105440547011967000, -4.489833893867648800E-017, 0.0000000000000000000 ) ) ;
#216 = ORIENTED_EDGE ( 'NONE', *, *, #147, .T. ) ;
#217 = CIRCLE ( 'NONE', #137, 0.4999999999999999400 ) ;
#218 = LINE ( 'NONE', #43, #78 ) ;
#219 = CC_DESIGN_APPROVAL ( #32, ( #226 ) ) ;
#220 = APPROVAL_PERSON_ORGANIZATION ( #244, #135, #11 ) ;
#221 = VECTOR ( 'NONE', #66, 39.37007874015748100 ) ;
#222 = AXIS2_PLACEMENT_3D ( 'NONE', #180, #266, #33 ) ;
#223 = CALENDAR_DATE ( 2015, 16, 11 ) ;
#224 = ORIENTED_EDGE ( 'NONE', *, *, #181, .F. ) ;
#225 = DIRECTION ( 'NONE',  ( 1.000000000000000000, 1.224646799147353900E-016, 0.0000000000000000000 ) ) ;
#226 = PRODUCT_DEFINITION ( 'UNKNOWN', '', #267, #107 ) ;
#227 = CIRCLE ( 'NONE', #297, 0.4930402875867464500 ) ;
#228 = CC_DESIGN_DATE_AND_TIME_ASSIGNMENT ( #45, #299, ( #165 ) ) ;
#229 = ADVANCED_FACE ( 'NONE', ( #158 ), #313, .T. ) ;
#230 = FACE_OUTER_BOUND ( 'NONE', #119, .T. ) ;
#231 = PERSON_AND_ORGANIZATION ( #325, #311 ) ;
#232 = ORIENTED_EDGE ( 'NONE', *, *, #13, .F. ) ;
#233 = ORIENTED_EDGE ( 'NONE', *, *, #248, .T. ) ;
#234 = DATE_AND_TIME ( #264, #117 ) ;
#235 = DIRECTION ( 'NONE',  ( -1.000000000000000000, -1.224646799147353900E-016, -0.0000000000000000000 ) ) ;
#236 = DIRECTION ( 'NONE',  ( 0.0000000000000000000, 0.0000000000000000000, 1.000000000000000000 ) ) ;
#237 = CARTESIAN_POINT ( 'NONE',  ( -0.06889763779527564900, 4.761176039992142000E-017, -3.913900831382039300E-031 ) ) ;
#238 = PRODUCT_RELATED_PRODUCT_CATEGORY ( 'detail', '', ( #57 ) ) ;
#239 = ORIENTED_EDGE ( 'NONE', *, *, #80, .T. ) ;
#240 = DIRECTION ( 'NONE',  ( 1.195183497228115300E-016, -1.000000000000000000, 0.0000000000000000000 ) ) ;
#241 = EDGE_CURVE ( 'NONE', #291, #30, #271, .T. ) ;
#242 = CALENDAR_DATE ( 2015, 16, 11 ) ;
#243 = ORIENTED_EDGE ( 'NONE', *, *, #85, .T. ) ;
#244 = PERSON_AND_ORGANIZATION ( #325, #311 ) ;
#245 = CONICAL_SURFACE ( 'NONE', #37, 0.4999999999999999400, 0.7853981633974507200 ) ;
#246 = APPROVAL_DATE_TIME ( #60, #135 ) ;
#247 = CC_DESIGN_PERSON_AND_ORGANIZATION_ASSIGNMENT ( #157, #151, ( #226 ) ) ;
#248 = EDGE_CURVE ( 'NONE', #47, #106, #70, .T. ) ;
#249 = PERSON_AND_ORGANIZATION ( #325, #311 ) ;
#250 = PERSON_AND_ORGANIZATION ( #325, #311 ) ;
#251 = ADVANCED_FACE ( 'NONE', ( #258 ), #187, .T. ) ;
#252 = DIRECTION ( 'NONE',  ( 1.365923996832131900E-016, -1.000000000000000000, 0.0000000000000000000 ) ) ;
#253 = APPROVAL_PERSON_ORGANIZATION ( #284, #256, #108 ) ;
#254 = DIMENSIONAL_EXPONENTS ( 1.000000000000000000, 0.0000000000000000000, 0.0000000000000000000, 0.0000000000000000000, 0.0000000000000000000, 0.0000000000000000000, 0.0000000000000000000 ) ;
#255 = CARTESIAN_POINT ( 'NONE',  ( 0.09801411788337306700, 0.4930402875867464000, 6.080618048087380000E-017 ) ) ;
#256 = APPROVAL ( #262, 'UNSPECIFIED' ) ;
#257 = ORIENTED_EDGE ( 'NONE', *, *, #181, .T. ) ;
#258 = FACE_OUTER_BOUND ( 'NONE', #73, .T. ) ;
#259 = DIRECTION ( 'NONE',  ( 0.0000000000000000000, -1.000000000000000000, -1.224646799147353200E-016 ) ) ;
#260 = DIRECTION ( 'NONE',  ( -1.000000000000000000, -1.224646799147353900E-016, -0.0000000000000000000 ) ) ;
#261 = DIRECTION ( 'NONE',  ( -1.000000000000000000, -1.224646799147353900E-016, -0.0000000000000000000 ) ) ;
#262 = APPROVAL_STATUS ( 'not_yet_approved' ) ;
#263 = VECTOR ( 'NONE', #309, 39.37007874015748100 ) ;
#264 = CALENDAR_DATE ( 2015, 16, 11 ) ;
#265 = FACE_OUTER_BOUND ( 'NONE', #136, .T. ) ;
#266 = DIRECTION ( 'NONE',  ( -1.000000000000000000, -1.224646799147353900E-016, -0.0000000000000000000 ) ) ;
#267 = PRODUCT_DEFINITION_FORMATION_WITH_SPECIFIED_SOURCE ( 'ANY', '', #57, .NOT_KNOWN. ) ;
#268 = DIRECTION ( 'NONE',  ( 1.000000000000000000, 0.0000000000000000000, 0.0000000000000000000 ) ) ;
#269 = PERSON_AND_ORGANIZATION_ROLE ( 'creator' ) ;
#270 = LOCAL_TIME ( 16, 54, 43.00000000000000000, #194 ) ;
#271 = LINE ( 'NONE', #65, #128 ) ;
#272 = ORIENTED_EDGE ( 'NONE', *, *, #85, .F. ) ;
#273 = DIRECTION ( 'NONE',  ( 1.224646799147353900E-016, -1.000000000000000000, 0.0000000000000000000 ) ) ;
#274 = APPROVAL_DATE_TIME ( #234, #256 ) ;
#275 = APPLICATION_CONTEXT ( 'configuration controlled 3d designs of mechanical parts and assemblies' ) ;
#276 = ORIENTED_EDGE ( 'NONE', *, *, #122, .F. ) ;
#277 = CARTESIAN_POINT ( 'NONE',  ( 0.09801411788337313600, -4.404601998568879100E-017, 0.0000000000000000000 ) ) ;
#278 = DIRECTION ( 'NONE',  ( -1.000000000000000000, -1.224646799147353900E-016, -0.0000000000000000000 ) ) ;
#279 = AXIS2_PLACEMENT_3D ( 'NONE', #21, #36, #273 ) ;
#280 = DIRECTION ( 'NONE',  ( 1.304303365396095400E-016, -1.000000000000000000, 6.982962677686266700E-015 ) ) ;
#281 =( LENGTH_UNIT ( ) NAMED_UNIT ( * ) SI_UNIT ( $, .METRE. ) );
#282 = CLOSED_SHELL ( 'NONE', ( #199, #110, #24, #229, #251, #130, #81, #6, #156, #314 ) ) ;
#283 = APPLICATION_PROTOCOL_DEFINITION ( 'international standard', 'config_control_design', 1994, #184 ) ;
#284 = PERSON_AND_ORGANIZATION ( #325, #311 ) ;
#285 = CIRCLE ( 'NONE', #111, 4.188976377952756500 ) ;
#286 = ADVANCED_BREP_SHAPE_REPRESENTATION ( '4222-E0W', ( #101, #35 ), #42 ) ;
#287 = CARTESIAN_POINT ( 'NONE',  ( -0.06889763779527559300, -0.5000000000000000000, 0.0000000000000000000 ) ) ;
#288 = DIRECTION ( 'NONE',  ( 1.304303365396095400E-016, -1.000000000000000000, 6.982962677686266700E-015 ) ) ;
#289 = DIRECTION ( 'NONE',  ( 1.385205257280124700E-016, -1.000000000000000000, 0.0000000000000000000 ) ) ;
#290 = PRODUCT_DEFINITION_SHAPE ( 'NONE', 'NONE',  #226 ) ;
#291 = VERTEX_POINT ( 'NONE', #102 ) ;
#292 = UNCERTAINTY_MEASURE_WITH_UNIT (LENGTH_MEASURE( 1.000000000000000100E-005 ), #124, 'distance_accuracy_value', 'NONE');
#293 = FACE_OUTER_BOUND ( 'NONE', #114, .T. ) ;
#294 = CARTESIAN_POINT ( 'NONE',  ( 0.09801411788337313600, -4.404601998568879100E-017, 0.0000000000000000000 ) ) ;
#295 = COORDINATED_UNIVERSAL_TIME_OFFSET ( 5, 0, .BEHIND. ) ;
#296 = DIRECTION ( 'NONE',  ( 1.385205257280124700E-016, -1.000000000000000000, 0.0000000000000000000 ) ) ;
#297 = AXIS2_PLACEMENT_3D ( 'NONE', #277, #260, #289 ) ;
#298 = DIRECTION ( 'NONE',  ( 1.224646799147353900E-016, -1.000000000000000000, 0.0000000000000000000 ) ) ;
#299 = DATE_TIME_ROLE ( 'classification_date' ) ;
#300 = DIRECTION ( 'NONE',  ( -8.551662891793922500E-031, 6.982962677686266700E-015, 1.000000000000000000 ) ) ;
#301 = VERTEX_POINT ( 'NONE', #255 ) ;
#302 = ORIENTED_EDGE ( 'NONE', *, *, #29, .F. ) ;
#303 = CIRCLE ( 'NONE', #84, 0.4999999999999999400 ) ;
#304 = PERSON_AND_ORGANIZATION ( #325, #311 ) ;
#305 = DIRECTION ( 'NONE',  ( -1.000000000000000000, -1.224646799147353900E-016, -0.0000000000000000000 ) ) ;
#306 = ORIENTED_EDGE ( 'NONE', *, *, #177, .T. ) ;
#307 = ORIENTED_EDGE ( 'NONE', *, *, #214, .F. ) ;
#308 = SPHERICAL_SURFACE ( 'NONE', #175, 4.188976377952756500 ) ;
#309 = DIRECTION ( 'NONE',  ( -1.000000000000000000, -1.224646799147353900E-016, -0.0000000000000000000 ) ) ;
#310 = DIRECTION ( 'NONE',  ( -1.000000000000000000, 0.0000000000000000000, 0.0000000000000000000 ) ) ;
#311 = ORGANIZATION ( 'UNSPECIFIED', 'UNSPECIFIED', '' ) ;
#312 = MECHANICAL_CONTEXT ( 'NONE', #184, 'mechanical' ) ;
#313 = CONICAL_SURFACE ( 'NONE', #79, 0.4999999999999999400, 0.7853981633974507200 ) ;
#314 = ADVANCED_FACE ( 'NONE', ( #172 ), #308, .F. ) ;
#315 = CARTESIAN_POINT ( 'NONE',  ( 0.09801411788337320600, -0.4930402875867465100, 0.0000000000000000000 ) ) ;
#316 = CARTESIAN_POINT ( 'NONE',  ( -0.05513548841583948400, -6.280143750018961500E-017, 0.0000000000000000000 ) ) ;
#317 = ORIENTED_EDGE ( 'NONE', *, *, #105, .T. ) ;
#318 = AXIS2_PLACEMENT_3D ( 'NONE', #294, #26, #296 ) ;
#319 = ORIENTED_EDGE ( 'NONE', *, *, #80, .F. ) ;
#320 = EDGE_LOOP ( 'NONE', ( #112, #326, #9 ) ) ;
#321 = DIRECTION ( 'NONE',  ( -1.000000000000000000, -1.224646799147353900E-016, -0.0000000000000000000 ) ) ;
#322 = APPLICATION_PROTOCOL_DEFINITION ( 'international standard', 'config_control_design', 1994, #275 ) ;
#323 = LINE ( 'NONE', #7, #100 ) ;
#324 = CIRCLE ( 'NONE', #104, 0.4999999999999999400 ) ;
#325 = PERSON ( 'UNSPECIFIED', 'UNSPECIFIED', 'UNSPECIFIED', ('UNSPECIFIED'), ('UNSPECIFIED'), ('UNSPECIFIED') ) ;
#326 = ORIENTED_EDGE ( 'NONE', *, *, #203, .T. ) ;
#327 = LENGTH_MEASURE_WITH_UNIT ( LENGTH_MEASURE( 0.02539999999999999900 ), #281 );
#328 = DIRECTION ( 'NONE',  ( 1.212054600120109100E-016, -1.000000000000000000, 0.0000000000000000000 ) ) ;
#329 = DATE_AND_TIME ( #41, #166 ) ;
#330 = DIRECTION ( 'NONE',  ( 1.195183497228115300E-016, -1.000000000000000000, 0.0000000000000000000 ) ) ;
ENDSEC;
END-ISO-10303-21;
