ISO-10303-21;
HEADER;
FILE_DESCRIPTION (( 'STEP AP203' ),
    '1' );
FILE_NAME ('Web Model 68433.STEP',
    '2017-01-31T20:04:05',
    ( '' ),
    ( '' ),
    'SwSTEP 2.0',
    'SolidWorks 2016',
    '' );
FILE_SCHEMA (( 'CONFIG_CONTROL_DESIGN' ));
ENDSEC;

DATA;
#1 = LOCAL_TIME ( 15, 4, 5.000000000000000000, #118 ) ;
#2 = EDGE_LOOP ( 'NONE', ( #64, #215, #150, #233 ) ) ;
#3 = DIRECTION ( 'NONE',  ( 0.0000000000000000000, -1.000000000000000000, 0.0000000000000000000 ) ) ;
#4 = AXIS2_PLACEMENT_3D ( 'NONE', #183, #186, #168 ) ;
#5 = DIRECTION ( 'NONE',  ( -0.0000000000000000000, -0.0000000000000000000, -1.000000000000000000 ) ) ;
#6 = ORIENTED_EDGE ( 'NONE', *, *, #41, .T. ) ;
#7 = CARTESIAN_POINT ( 'NONE',  ( 37.50000000000000000, -37.49999999999999300, 3.000000000000000000 ) ) ;
#8 = DATE_AND_TIME ( #231, #179 ) ;
#9 = LINE ( 'NONE', #129, #70 ) ;
#10 = VERTEX_POINT ( 'NONE', #143 ) ;
#11 = AXIS2_PLACEMENT_3D ( 'NONE', #82, #67, #100 ) ;
#12 = EDGE_CURVE ( 'NONE', #198, #10, #86, .T. ) ;
#13 = ORIENTED_EDGE ( 'NONE', *, *, #190, .F. ) ;
#14 = DIRECTION ( 'NONE',  ( 1.000000000000000000, 1.850371707708594300E-016, -0.0000000000000000000 ) ) ;
#15 = CARTESIAN_POINT ( 'NONE',  ( -37.50000000000000700, 37.49999999999999300, 3.000000000000000000 ) ) ;
#16 = PERSON_AND_ORGANIZATION ( #191, #232 ) ;
#17 = FACE_OUTER_BOUND ( 'NONE', #97, .T. ) ;
#18 = CARTESIAN_POINT ( 'NONE',  ( 37.50000000000000000, -37.49999999999999300, 0.0000000000000000000 ) ) ;
#19 = APPROVAL_STATUS ( 'not_yet_approved' ) ;
#20 = PERSON_AND_ORGANIZATION_ROLE ( 'creator' ) ;
#21 = EDGE_LOOP ( 'NONE', ( #6, #13, #83, #94 ) ) ;
#22 = PRODUCT_RELATED_PRODUCT_CATEGORY ( 'detail', '', ( #115 ) ) ;
#23 = DIRECTION ( 'NONE',  ( -0.0000000000000000000, 1.000000000000000000, -0.0000000000000000000 ) ) ;
#24 = VECTOR ( 'NONE', #48, 1000.000000000000000 ) ;
#25 = VECTOR ( 'NONE', #5, 1000.000000000000000 ) ;
#26 = EDGE_CURVE ( 'NONE', #221, #174, #127, .T. ) ;
#27 = DIRECTION ( 'NONE',  ( -0.0000000000000000000, -0.0000000000000000000, -1.000000000000000000 ) ) ;
#28 = FACE_OUTER_BOUND ( 'NONE', #2, .T. ) ;
#29 = ORIENTED_EDGE ( 'NONE', *, *, #31, .F. ) ;
#30 = CARTESIAN_POINT ( 'NONE',  ( 37.50000000000000000, 37.49999999999999300, 0.0000000000000000000 ) ) ;
#31 = EDGE_CURVE ( 'NONE', #198, #103, #123, .T. ) ;
#32 = CARTESIAN_POINT ( 'NONE',  ( -37.50000000000000000, -37.50000000000000700, 0.0000000000000000000 ) ) ;
#33 = PERSON_AND_ORGANIZATION ( #191, #232 ) ;
#34 = PERSON_AND_ORGANIZATION ( #191, #232 ) ;
#35 = PRODUCT_DEFINITION ( 'UNKNOWN', '', #184, #167 ) ;
#36 = APPLICATION_PROTOCOL_DEFINITION ( 'international standard', 'config_control_design', 1994, #114 ) ;
#37 = DIRECTION ( 'NONE',  ( 0.0000000000000000000, 0.0000000000000000000, 1.000000000000000000 ) ) ;
#38 = APPROVAL_ROLE ( '' ) ;
#39 = LOCAL_TIME ( 15, 4, 5.000000000000000000, #56 ) ;
#40 = APPROVAL_STATUS ( 'not_yet_approved' ) ;
#41 = EDGE_CURVE ( 'NONE', #174, #203, #116, .T. ) ;
#42 = COORDINATED_UNIVERSAL_TIME_OFFSET ( 5, 0, .BEHIND. ) ;
#43 = VECTOR ( 'NONE', #223, 1000.000000000000000 ) ;
#44 = DIRECTION ( 'NONE',  ( -0.0000000000000000000, -0.0000000000000000000, -1.000000000000000000 ) ) ;
#45 = DIRECTION ( 'NONE',  ( -1.850371707708594100E-016, 1.000000000000000000, 0.0000000000000000000 ) ) ;
#46 = CARTESIAN_POINT ( 'NONE',  ( 37.50000000000000000, 37.49999999999999300, 3.000000000000000000 ) ) ;
#47 = APPROVAL_DATE_TIME ( #121, #111 ) ;
#48 = DIRECTION ( 'NONE',  ( 9.251858538542971600E-017, -1.000000000000000000, 0.0000000000000000000 ) ) ;
#49 = PRODUCT_DEFINITION_SHAPE ( 'NONE', 'NONE',  #35 ) ;
#50 = LOCAL_TIME ( 15, 4, 5.000000000000000000, #162 ) ;
#51 = ORIENTED_EDGE ( 'NONE', *, *, #193, .F. ) ;
#52 = PLANE ( 'NONE',  #237 ) ;
#53 = CC_DESIGN_DATE_AND_TIME_ASSIGNMENT ( #207, #160, ( #163 ) ) ;
#54 = CARTESIAN_POINT ( 'NONE',  ( -37.50000000000000700, 37.49999999999999300, 0.0000000000000000000 ) ) ;
#55 = DIRECTION ( 'NONE',  ( 9.251858538542971600E-017, -1.000000000000000000, 0.0000000000000000000 ) ) ;
#56 = COORDINATED_UNIVERSAL_TIME_OFFSET ( 5, 0, .BEHIND. ) ;
#57 = EDGE_LOOP ( 'NONE', ( #197, #159, #98, #138 ) ) ;
#58 = APPROVAL_ROLE ( '' ) ;
#59 = EDGE_LOOP ( 'NONE', ( #188, #29, #228, #149 ) ) ;
#60 = ADVANCED_FACE ( 'NONE', ( #182 ), #147, .F. ) ;
#61 = CC_DESIGN_APPROVAL ( #111, ( #184 ) ) ;
#62 = VECTOR ( 'NONE', #55, 1000.000000000000000 ) ;
#63 = PLANE ( 'NONE',  #4 ) ;
#64 = ORIENTED_EDGE ( 'NONE', *, *, #72, .T. ) ;
#65 = CARTESIAN_POINT ( 'NONE',  ( -37.50000000000000700, 37.49999999999999300, 0.0000000000000000000 ) ) ;
#66 = LINE ( 'NONE', #77, #172 ) ;
#67 = DIRECTION ( 'NONE',  ( -1.000000000000000000, 0.0000000000000000000, 0.0000000000000000000 ) ) ;
#68 = DIRECTION ( 'NONE',  ( -1.000000000000000000, 0.0000000000000000000, 0.0000000000000000000 ) ) ;
#69 = APPROVAL_PERSON_ORGANIZATION ( #110, #111, #117 ) ;
#70 = VECTOR ( 'NONE', #157, 1000.000000000000000 ) ;
#71 = EDGE_LOOP ( 'NONE', ( #88, #145, #51, #80 ) ) ;
#72 = EDGE_CURVE ( 'NONE', #165, #174, #217, .T. ) ;
#73 = ADVANCED_FACE ( 'NONE', ( #17 ), #63, .F. ) ;
#74 = DATE_AND_TIME ( #209, #39 ) ;
#75 = DIRECTION ( 'NONE',  ( 1.000000000000000000, 9.251858538542970300E-017, -0.0000000000000000000 ) ) ;
#76 = LINE ( 'NONE', #176, #164 ) ;
#77 = CARTESIAN_POINT ( 'NONE',  ( -37.50000000000000700, 37.49999999999999300, 3.000000000000000000 ) ) ;
#78 = COORDINATED_UNIVERSAL_TIME_OFFSET ( 5, 0, .BEHIND. ) ;
#79 = DATE_AND_TIME ( #219, #50 ) ;
#80 = ORIENTED_EDGE ( 'NONE', *, *, #41, .F. ) ;
#81 = PERSON_AND_ORGANIZATION_ROLE ( 'design_owner' ) ;
#82 = CARTESIAN_POINT ( 'NONE',  ( 37.50000000000000000, 37.49999999999999300, 3.000000000000000000 ) ) ;
#83 = ORIENTED_EDGE ( 'NONE', *, *, #180, .F. ) ;
#84 = DATE_TIME_ROLE ( 'creation_date' ) ;
#85 = ADVANCED_FACE ( 'NONE', ( #106 ), #109, .F. ) ;
#86 = LINE ( 'NONE', #222, #43 ) ;
#87 = SECURITY_CLASSIFICATION_LEVEL ( 'unclassified' ) ;
#88 = ORIENTED_EDGE ( 'NONE', *, *, #72, .F. ) ;
#89 = EDGE_CURVE ( 'NONE', #10, #165, #66, .T. ) ;
#90 = APPROVAL_PERSON_ORGANIZATION ( #16, #218, #58 ) ;
#91 = APPROVAL_DATE_TIME ( #74, #105 ) ;
#92 = CLOSED_SHELL ( 'NONE', ( #120, #85, #161, #60, #73, #140 ) ) ;
#93 = CALENDAR_DATE ( 2017, 31, 1 ) ;
#94 = ORIENTED_EDGE ( 'NONE', *, *, #26, .T. ) ;
#95 = AXIS2_PLACEMENT_3D ( 'NONE', #134, #37, #189 ) ;
#96 = CARTESIAN_POINT ( 'NONE',  ( 37.50000000000000000, -37.49999999999999300, 3.000000000000000000 ) ) ;
#97 = EDGE_LOOP ( 'NONE', ( #192, #107, #125, #130 ) ) ;
#98 = ORIENTED_EDGE ( 'NONE', *, *, #12, .F. ) ;
#99 =( NAMED_UNIT ( * ) PLANE_ANGLE_UNIT ( ) SI_UNIT ( $, .RADIAN. ) );
#100 = DIRECTION ( 'NONE',  ( 0.0000000000000000000, 0.0000000000000000000, 1.000000000000000000 ) ) ;
#101 = FACE_OUTER_BOUND ( 'NONE', #71, .T. ) ;
#102 = LINE ( 'NONE', #15, #62 ) ;
#103 = VERTEX_POINT ( 'NONE', #224 ) ;
#104 = PERSON_AND_ORGANIZATION_ROLE ( 'classification_officer' ) ;
#105 = APPROVAL ( #139, 'UNSPECIFIED' ) ;
#106 = FACE_OUTER_BOUND ( 'NONE', #21, .T. ) ;
#107 = ORIENTED_EDGE ( 'NONE', *, *, #180, .T. ) ;
#108 = DIRECTION ( 'NONE',  ( -1.000000000000000000, -1.850371707708594100E-016, 0.0000000000000000000 ) ) ;
#109 = PLANE ( 'NONE',  #171 ) ;
#110 = PERSON_AND_ORGANIZATION ( #191, #232 ) ;
#111 = APPROVAL ( #40, 'UNSPECIFIED' ) ;
#112 = AXIS2_PLACEMENT_3D ( 'NONE', #151, #175, #196 ) ;
#113 = UNCERTAINTY_MEASURE_WITH_UNIT (LENGTH_MEASURE( 1.000000000000000100E-005 ), #210, 'distance_accuracy_value', 'NONE');
#114 = APPLICATION_CONTEXT ( 'configuration controlled 3d designs of mechanical parts and assemblies' ) ;
#115 = PRODUCT ( 'Web Model 68433', 'Web Model 68433', '', ( #230 ) ) ;
#116 = LINE ( 'NONE', #166, #177 ) ;
#117 = APPROVAL_ROLE ( '' ) ;
#118 = COORDINATED_UNIVERSAL_TIME_OFFSET ( 5, 0, .BEHIND. ) ;
#119 = PERSON_AND_ORGANIZATION ( #191, #232 ) ;
#120 = ADVANCED_FACE ( 'NONE', ( #28 ), #52, .F. ) ;
#121 = DATE_AND_TIME ( #214, #1 ) ;
#122 = PERSON_AND_ORGANIZATION ( #191, #232 ) ;
#123 = LINE ( 'NONE', #204, #25 ) ;
#124 = DIRECTION ( 'NONE',  ( 0.0000000000000000000, -0.0000000000000000000, -1.000000000000000000 ) ) ;
#125 = ORIENTED_EDGE ( 'NONE', *, *, #128, .T. ) ;
#126 = VECTOR ( 'NONE', #68, 1000.000000000000000 ) ;
#127 = LINE ( 'NONE', #146, #225 ) ;
#128 = EDGE_CURVE ( 'NONE', #142, #198, #181, .T. ) ;
#129 = CARTESIAN_POINT ( 'NONE',  ( 37.50000000000000000, -37.49999999999999300, 3.000000000000000000 ) ) ;
#130 = ORIENTED_EDGE ( 'NONE', *, *, #12, .T. ) ;
#131 =( NAMED_UNIT ( * ) SI_UNIT ( $, .STERADIAN. ) SOLID_ANGLE_UNIT ( ) );
#132 = PLANE ( 'NONE',  #112 ) ;
#133 = CC_DESIGN_PERSON_AND_ORGANIZATION_ASSIGNMENT ( #33, #20, ( #184 ) ) ;
#134 = CARTESIAN_POINT ( 'NONE',  ( 0.0000000000000000000, 0.0000000000000000000, 0.0000000000000000000 ) ) ;
#135 = APPLICATION_PROTOCOL_DEFINITION ( 'international standard', 'config_control_design', 1994, #226 ) ;
#136 = PERSON_AND_ORGANIZATION_ROLE ( 'design_supplier' ) ;
#137 = LOCAL_TIME ( 15, 4, 5.000000000000000000, #42 ) ;
#138 = ORIENTED_EDGE ( 'NONE', *, *, #31, .T. ) ;
#139 = APPROVAL_STATUS ( 'not_yet_approved' ) ;
#140 = ADVANCED_FACE ( 'NONE', ( #101 ), #132, .T. ) ;
#141 = APPROVAL_PERSON_ORGANIZATION ( #34, #105, #38 ) ;
#142 = VERTEX_POINT ( 'NONE', #7 ) ;
#143 = CARTESIAN_POINT ( 'NONE',  ( -37.50000000000000700, 37.49999999999999300, 3.000000000000000000 ) ) ;
#144 = CC_DESIGN_PERSON_AND_ORGANIZATION_ASSIGNMENT ( #119, #81, ( #115 ) ) ;
#145 = ORIENTED_EDGE ( 'NONE', *, *, #236, .F. ) ;
#146 = CARTESIAN_POINT ( 'NONE',  ( -37.50000000000000000, -37.50000000000000700, 3.000000000000000000 ) ) ;
#147 = PLANE ( 'NONE',  #208 ) ;
#148 = FACE_OUTER_BOUND ( 'NONE', #59, .T. ) ;
#149 = ORIENTED_EDGE ( 'NONE', *, *, #190, .T. ) ;
#150 = ORIENTED_EDGE ( 'NONE', *, *, #178, .F. ) ;
#151 = CARTESIAN_POINT ( 'NONE',  ( -37.50000000000000000, -37.50000000000000700, 0.0000000000000000000 ) ) ;
#152 = CARTESIAN_POINT ( 'NONE',  ( -37.50000000000000000, -37.50000000000000700, 3.000000000000000000 ) ) ;
#153 = CC_DESIGN_PERSON_AND_ORGANIZATION_ASSIGNMENT ( #187, #104, ( #163 ) ) ;
#154 = CARTESIAN_POINT ( 'NONE',  ( 37.50000000000000000, 37.49999999999999300, 3.000000000000000000 ) ) ;
#155 = PLANE ( 'NONE',  #11 ) ;
#156 = SHAPE_DEFINITION_REPRESENTATION ( #49, #170 ) ;
#157 = DIRECTION ( 'NONE',  ( -0.0000000000000000000, -0.0000000000000000000, -1.000000000000000000 ) ) ;
#158 = VECTOR ( 'NONE', #211, 1000.000000000000000 ) ;
#159 = ORIENTED_EDGE ( 'NONE', *, *, #89, .F. ) ;
#160 = DATE_TIME_ROLE ( 'classification_date' ) ;
#161 = ADVANCED_FACE ( 'NONE', ( #148 ), #155, .F. ) ;
#162 = COORDINATED_UNIVERSAL_TIME_OFFSET ( 5, 0, .BEHIND. ) ;
#163 = SECURITY_CLASSIFICATION ( '', '', #87 ) ;
#164 = VECTOR ( 'NONE', #14, 1000.000000000000000 ) ;
#165 = VERTEX_POINT ( 'NONE', #54 ) ;
#166 = CARTESIAN_POINT ( 'NONE',  ( 37.50000000000000000, -37.49999999999999300, 0.0000000000000000000 ) ) ;
#167 = DESIGN_CONTEXT ( 'detailed design', #226, 'design' ) ;
#168 = DIRECTION ( 'NONE',  ( -1.000000000000000000, 0.0000000000000000000, -0.0000000000000000000 ) ) ;
#169 = LINE ( 'NONE', #30, #158 ) ;
#170 = ADVANCED_BREP_SHAPE_REPRESENTATION ( 'Web Model 68433', ( #216, #95 ), #234 ) ;
#171 = AXIS2_PLACEMENT_3D ( 'NONE', #96, #45, #108 ) ;
#172 = VECTOR ( 'NONE', #27, 1000.000000000000000 ) ;
#173 = CARTESIAN_POINT ( 'NONE',  ( -37.50000000000000700, 37.49999999999999300, 3.000000000000000000 ) ) ;
#174 = VERTEX_POINT ( 'NONE', #32 ) ;
#175 = DIRECTION ( 'NONE',  ( 0.0000000000000000000, 0.0000000000000000000, -1.000000000000000000 ) ) ;
#176 = CARTESIAN_POINT ( 'NONE',  ( 37.50000000000000000, -37.49999999999999300, 3.000000000000000000 ) ) ;
#177 = VECTOR ( 'NONE', #205, 1000.000000000000000 ) ;
#178 = EDGE_CURVE ( 'NONE', #10, #221, #102, .T. ) ;
#179 = LOCAL_TIME ( 15, 4, 5.000000000000000000, #78 ) ;
#180 = EDGE_CURVE ( 'NONE', #221, #142, #76, .T. ) ;
#181 = LINE ( 'NONE', #200, #202 ) ;
#182 = FACE_OUTER_BOUND ( 'NONE', #57, .T. ) ;
#183 = CARTESIAN_POINT ( 'NONE',  ( -37.50000000000000000, -37.50000000000000700, 3.000000000000000000 ) ) ;
#184 = PRODUCT_DEFINITION_FORMATION_WITH_SPECIFIED_SOURCE ( 'ANY', '', #115, .NOT_KNOWN. ) ;
#185 = APPROVAL_DATE_TIME ( #8, #218 ) ;
#186 = DIRECTION ( 'NONE',  ( 0.0000000000000000000, 0.0000000000000000000, -1.000000000000000000 ) ) ;
#187 = PERSON_AND_ORGANIZATION ( #191, #232 ) ;
#188 = ORIENTED_EDGE ( 'NONE', *, *, #193, .T. ) ;
#189 = DIRECTION ( 'NONE',  ( 1.000000000000000000, 0.0000000000000000000, 0.0000000000000000000 ) ) ;
#190 = EDGE_CURVE ( 'NONE', #142, #203, #9, .T. ) ;
#191 = PERSON ( 'UNSPECIFIED', 'UNSPECIFIED', 'UNSPECIFIED', ('UNSPECIFIED'), ('UNSPECIFIED'), ('UNSPECIFIED') ) ;
#192 = ORIENTED_EDGE ( 'NONE', *, *, #178, .T. ) ;
#193 = EDGE_CURVE ( 'NONE', #203, #103, #169, .T. ) ;
#194 = CARTESIAN_POINT ( 'NONE',  ( 37.50000000000000000, 37.49999999999999300, 0.0000000000000000000 ) ) ;
#195 = CC_DESIGN_DATE_AND_TIME_ASSIGNMENT ( #79, #84, ( #35 ) ) ;
#196 = DIRECTION ( 'NONE',  ( -1.000000000000000000, 0.0000000000000000000, -0.0000000000000000000 ) ) ;
#197 = ORIENTED_EDGE ( 'NONE', *, *, #236, .T. ) ;
#198 = VERTEX_POINT ( 'NONE', #154 ) ;
#199 = CC_DESIGN_APPROVAL ( #218, ( #163 ) ) ;
#200 = CARTESIAN_POINT ( 'NONE',  ( 37.50000000000000000, 37.49999999999999300, 3.000000000000000000 ) ) ;
#201 = CC_DESIGN_PERSON_AND_ORGANIZATION_ASSIGNMENT ( #122, #235, ( #35 ) ) ;
#202 = VECTOR ( 'NONE', #23, 1000.000000000000000 ) ;
#203 = VERTEX_POINT ( 'NONE', #18 ) ;
#204 = CARTESIAN_POINT ( 'NONE',  ( 37.50000000000000000, 37.49999999999999300, 3.000000000000000000 ) ) ;
#205 = DIRECTION ( 'NONE',  ( 1.000000000000000000, 1.850371707708594300E-016, -0.0000000000000000000 ) ) ;
#206 = CC_DESIGN_PERSON_AND_ORGANIZATION_ASSIGNMENT ( #227, #136, ( #184 ) ) ;
#207 = DATE_AND_TIME ( #93, #137 ) ;
#208 = AXIS2_PLACEMENT_3D ( 'NONE', #46, #3, #124 ) ;
#209 = CALENDAR_DATE ( 2017, 31, 1 ) ;
#210 =( LENGTH_UNIT ( ) NAMED_UNIT ( * ) SI_UNIT ( .MILLI., .METRE. ) );
#211 = DIRECTION ( 'NONE',  ( -0.0000000000000000000, 1.000000000000000000, -0.0000000000000000000 ) ) ;
#212 = LINE ( 'NONE', #194, #126 ) ;
#213 = CC_DESIGN_SECURITY_CLASSIFICATION ( #163, ( #184 ) ) ;
#214 = CALENDAR_DATE ( 2017, 31, 1 ) ;
#215 = ORIENTED_EDGE ( 'NONE', *, *, #26, .F. ) ;
#216 = MANIFOLD_SOLID_BREP ( 'Extrude1', #92 ) ;
#217 = LINE ( 'NONE', #65, #24 ) ;
#218 = APPROVAL ( #19, 'UNSPECIFIED' ) ;
#219 = CALENDAR_DATE ( 2017, 31, 1 ) ;
#220 = DIRECTION ( 'NONE',  ( -9.251858538542970300E-017, 1.000000000000000000, 0.0000000000000000000 ) ) ;
#221 = VERTEX_POINT ( 'NONE', #152 ) ;
#222 = CARTESIAN_POINT ( 'NONE',  ( 37.50000000000000000, 37.49999999999999300, 3.000000000000000000 ) ) ;
#223 = DIRECTION ( 'NONE',  ( -1.000000000000000000, 0.0000000000000000000, 0.0000000000000000000 ) ) ;
#224 = CARTESIAN_POINT ( 'NONE',  ( 37.50000000000000000, 37.49999999999999300, 0.0000000000000000000 ) ) ;
#225 = VECTOR ( 'NONE', #44, 1000.000000000000000 ) ;
#226 = APPLICATION_CONTEXT ( 'configuration controlled 3d designs of mechanical parts and assemblies' ) ;
#227 = PERSON_AND_ORGANIZATION ( #191, #232 ) ;
#228 = ORIENTED_EDGE ( 'NONE', *, *, #128, .F. ) ;
#229 = CC_DESIGN_APPROVAL ( #105, ( #35 ) ) ;
#230 = MECHANICAL_CONTEXT ( 'NONE', #114, 'mechanical' ) ;
#231 = CALENDAR_DATE ( 2017, 31, 1 ) ;
#232 = ORGANIZATION ( 'UNSPECIFIED', 'UNSPECIFIED', '' ) ;
#233 = ORIENTED_EDGE ( 'NONE', *, *, #89, .T. ) ;
#234 =( GEOMETRIC_REPRESENTATION_CONTEXT ( 3 ) GLOBAL_UNCERTAINTY_ASSIGNED_CONTEXT ( ( #113 ) ) GLOBAL_UNIT_ASSIGNED_CONTEXT ( ( #210, #99, #131 ) ) REPRESENTATION_CONTEXT ( 'NONE', 'WORKASPACE' ) );
#235 = PERSON_AND_ORGANIZATION_ROLE ( 'creator' ) ;
#236 = EDGE_CURVE ( 'NONE', #103, #165, #212, .T. ) ;
#237 = AXIS2_PLACEMENT_3D ( 'NONE', #173, #75, #220 ) ;
ENDSEC;
END-ISO-10303-21;
