ISO-10303-21;
HEADER;
FILE_DESCRIPTION (( 'STEP AP203' ),
    '1' );
FILE_NAME ('Web Model 47193_13350.step',
    '2020-11-04T13:57:01',
    ( '' ),
    ( '' ),
    'SwSTEP 2.0',
    'SolidWorks 2018',
    '' );
FILE_SCHEMA (( 'CONFIG_CONTROL_DESIGN' ));
ENDSEC;

DATA;
#1 = CARTESIAN_POINT ( 'NONE',  ( 6.249999999999998224, 0.0000000000000000000, -2.000000000000000000 ) ) ;
#2 = EDGE_CURVE ( 'NONE', #78, #50, #55, .T. ) ;
#3 = CARTESIAN_POINT ( 'NONE',  ( 0.0000000000000000000, 0.0000000000000000000, -2.000000000000000000 ) ) ;
#4 = LOCAL_TIME ( 8, 57, 1.000000000000000000, #48 ) ;
#5 = DIRECTION ( 'NONE',  ( 0.0000000000000000000, 0.0000000000000000000, 1.000000000000000000 ) ) ;
#6 = CARTESIAN_POINT ( 'NONE',  ( 6.249999999999998224, 0.0000000000000000000, 0.0000000000000000000 ) ) ;
#7 = DIRECTION ( 'NONE',  ( 1.000000000000000000, 0.0000000000000000000, 0.0000000000000000000 ) ) ;
#8 = PERSON_AND_ORGANIZATION_ROLE ( 'design_owner' ) ;
#9 = CC_DESIGN_DATE_AND_TIME_ASSIGNMENT ( #88, #101, ( #28 ) ) ;
#10 = LINE ( 'NONE', #153, #15 ) ;
#11 = ADVANCED_FACE ( 'NONE', ( #64 ), #85, .F. ) ;
#12 = CC_DESIGN_PERSON_AND_ORGANIZATION_ASSIGNMENT ( #29, #87, ( #173 ) ) ;
#13 = AXIS2_PLACEMENT_3D ( 'NONE', #97, #112, #109 ) ;
#14 = VECTOR ( 'NONE', #107, 1000.000000000000000 ) ;
#15 = VECTOR ( 'NONE', #141, 1000.000000000000000 ) ;
#16 = COORDINATED_UNIVERSAL_TIME_OFFSET ( 5, 0, .BEHIND. ) ;
#17 = CARTESIAN_POINT ( 'NONE',  ( 0.0000000000000000000, 0.0000000000000000000, -2.000000000000000000 ) ) ;
#18 = DIRECTION ( 'NONE',  ( 0.0000000000000000000, 0.0000000000000000000, 1.000000000000000000 ) ) ;
#19 = PRODUCT_RELATED_PRODUCT_CATEGORY ( 'detail', '', ( #103 ) ) ;
#20 = DIRECTION ( 'NONE',  ( 0.0000000000000000000, 0.0000000000000000000, 1.000000000000000000 ) ) ;
#21 = CYLINDRICAL_SURFACE ( 'NONE', #13, 6.249999999999998224 ) ;
#22 = DIRECTION ( 'NONE',  ( 1.000000000000000000, 0.0000000000000000000, 0.0000000000000000000 ) ) ;
#23 = APPLICATION_PROTOCOL_DEFINITION ( 'international standard', 'config_control_design', 1994, #100 ) ;
#24 = SECURITY_CLASSIFICATION_LEVEL ( 'unclassified' ) ;
#25 = MANIFOLD_SOLID_BREP ( 'Boss-Extrude1', #41 ) ;
#26 = PERSON_AND_ORGANIZATION ( #159, #130 ) ;
#27 = CYLINDRICAL_SURFACE ( 'NONE', #76, 6.249999999999998224 ) ;
#28 = SECURITY_CLASSIFICATION ( '', '', #24 ) ;
#29 = PERSON_AND_ORGANIZATION ( #159, #130 ) ;
#30 = FACE_OUTER_BOUND ( 'NONE', #96, .T. ) ;
#31 = PERSON_AND_ORGANIZATION ( #159, #130 ) ;
#32 = CARTESIAN_POINT ( 'NONE',  ( -6.249999999999998224, 7.654042494670955634E-16, -2.000000000000000000 ) ) ;
#33 = ORIENTED_EDGE ( 'NONE', *, *, #69, .F. ) ;
#34 = DIRECTION ( 'NONE',  ( 1.000000000000000000, 0.0000000000000000000, -0.0000000000000000000 ) ) ;
#35 = DIRECTION ( 'NONE',  ( 0.0000000000000000000, 0.0000000000000000000, 1.000000000000000000 ) ) ;
#36 = CALENDAR_DATE ( 2020, 4, 11 ) ;
#37 = APPROVAL_ROLE ( '' ) ;
#38 = APPROVAL_STATUS ( 'not_yet_approved' ) ;
#39 = APPROVAL_ROLE ( '' ) ;
#40 = APPROVAL_DATE_TIME ( #104, #93 ) ;
#41 = CLOSED_SHELL ( 'NONE', ( #62, #102, #11, #127 ) ) ;
#42 = EDGE_CURVE ( 'NONE', #78, #75, #108, .T. ) ;
#43 = FACE_OUTER_BOUND ( 'NONE', #111, .T. ) ;
#44 = CARTESIAN_POINT ( 'NONE',  ( 0.0000000000000000000, 0.0000000000000000000, 0.0000000000000000000 ) ) ;
#45 =( NAMED_UNIT ( * ) PLANE_ANGLE_UNIT ( ) SI_UNIT ( $, .RADIAN. ) );
#46 = ORIENTED_EDGE ( 'NONE', *, *, #83, .T. ) ;
#47 = APPROVAL_STATUS ( 'not_yet_approved' ) ;
#48 = COORDINATED_UNIVERSAL_TIME_OFFSET ( 5, 0, .BEHIND. ) ;
#49 = ORIENTED_EDGE ( 'NONE', *, *, #42, .F. ) ;
#50 = VERTEX_POINT ( 'NONE', #6 ) ;
#51 = EDGE_LOOP ( 'NONE', ( #49, #121 ) ) ;
#52 = APPROVAL_PERSON_ORGANIZATION ( #90, #148, #60 ) ;
#53 = ORIENTED_EDGE ( 'NONE', *, *, #162, .F. ) ;
#54 = CALENDAR_DATE ( 2020, 4, 11 ) ;
#55 = LINE ( 'NONE', #1, #14 ) ;
#56 = AXIS2_PLACEMENT_3D ( 'NONE', #58, #99, #124 ) ;
#57 = DIRECTION ( 'NONE',  ( 1.000000000000000000, 0.0000000000000000000, 0.0000000000000000000 ) ) ;
#58 = CARTESIAN_POINT ( 'NONE',  ( 0.0000000000000000000, 0.0000000000000000000, 0.0000000000000000000 ) ) ;
#59 =( NAMED_UNIT ( * ) SI_UNIT ( $, .STERADIAN. ) SOLID_ANGLE_UNIT ( ) );
#60 = APPROVAL_ROLE ( '' ) ;
#61 = APPROVAL_DATE_TIME ( #132, #118 ) ;
#62 = ADVANCED_FACE ( 'NONE', ( #30 ), #21, .T. ) ;
#63 = DATE_TIME_ROLE ( 'creation_date' ) ;
#64 = FACE_OUTER_BOUND ( 'NONE', #51, .T. ) ;
#65 = DATE_AND_TIME ( #54, #140 ) ;
#66 = PERSON_AND_ORGANIZATION ( #159, #130 ) ;
#67 = ORIENTED_EDGE ( 'NONE', *, *, #42, .T. ) ;
#68 = DATE_AND_TIME ( #36, #115 ) ;
#69 = EDGE_CURVE ( 'NONE', #75, #155, #10, .T. ) ;
#70 = DIRECTION ( 'NONE',  ( 0.0000000000000000000, 0.0000000000000000000, 1.000000000000000000 ) ) ;
#71 = CALENDAR_DATE ( 2020, 4, 11 ) ;
#72 = CC_DESIGN_PERSON_AND_ORGANIZATION_ASSIGNMENT ( #94, #114, ( #173 ) ) ;
#73 = APPLICATION_PROTOCOL_DEFINITION ( 'international standard', 'config_control_design', 1994, #86 ) ;
#74 = CARTESIAN_POINT ( 'NONE',  ( 0.0000000000000000000, 0.0000000000000000000, -2.000000000000000000 ) ) ;
#75 = VERTEX_POINT ( 'NONE', #32 ) ;
#76 = AXIS2_PLACEMENT_3D ( 'NONE', #74, #110, #22 ) ;
#77 = LOCAL_TIME ( 8, 57, 1.000000000000000000, #134 ) ;
#78 = VERTEX_POINT ( 'NONE', #164 ) ;
#79 = PRODUCT_DEFINITION_SHAPE ( 'NONE', 'NONE',  #150 ) ;
#80 = ORIENTED_EDGE ( 'NONE', *, *, #163, .T. ) ;
#81 = LOCAL_TIME ( 8, 57, 1.000000000000000000, #120 ) ;
#82 = CARTESIAN_POINT ( 'NONE',  ( 0.0000000000000000000, 0.0000000000000000000, 0.0000000000000000000 ) ) ;
#83 = EDGE_CURVE ( 'NONE', #155, #50, #106, .T. ) ;
#84 = DIRECTION ( 'NONE',  ( 1.000000000000000000, 0.0000000000000000000, 0.0000000000000000000 ) ) ;
#85 = PLANE ( 'NONE',  #98 ) ;
#86 = APPLICATION_CONTEXT ( 'configuration controlled 3d designs of mechanical parts and assemblies' ) ;
#87 = PERSON_AND_ORGANIZATION_ROLE ( 'design_supplier' ) ;
#88 = DATE_AND_TIME ( #158, #77 ) ;
#89 = ORIENTED_EDGE ( 'NONE', *, *, #69, .T. ) ;
#90 = PERSON_AND_ORGANIZATION ( #159, #130 ) ;
#91 = CALENDAR_DATE ( 2020, 4, 11 ) ;
#92 = CIRCLE ( 'NONE', #133, 6.249999999999998224 ) ;
#93 = APPROVAL ( #38, 'UNSPECIFIED' ) ;
#94 = PERSON_AND_ORGANIZATION ( #159, #130 ) ;
#95 = DIRECTION ( 'NONE',  ( 1.000000000000000000, 0.0000000000000000000, 0.0000000000000000000 ) ) ;
#96 = EDGE_LOOP ( 'NONE', ( #67, #89, #53, #117 ) ) ;
#97 = CARTESIAN_POINT ( 'NONE',  ( 0.0000000000000000000, 0.0000000000000000000, -2.000000000000000000 ) ) ;
#98 = AXIS2_PLACEMENT_3D ( 'NONE', #143, #35, #34 ) ;
#99 = DIRECTION ( 'NONE',  ( 0.0000000000000000000, 0.0000000000000000000, 1.000000000000000000 ) ) ;
#100 = APPLICATION_CONTEXT ( 'configuration controlled 3d designs of mechanical parts and assemblies' ) ;
#101 = DATE_TIME_ROLE ( 'classification_date' ) ;
#102 = ADVANCED_FACE ( 'NONE', ( #43 ), #27, .T. ) ;
#103 = PRODUCT ( 'Web Model 47193_13350', 'Web Model 47193_13350', '', ( #167 ) ) ;
#104 = DATE_AND_TIME ( #91, #4 ) ;
#105 = AXIS2_PLACEMENT_3D ( 'NONE', #44, #5, #57 ) ;
#106 = CIRCLE ( 'NONE', #105, 6.249999999999998224 ) ;
#107 = DIRECTION ( 'NONE',  ( 0.0000000000000000000, 0.0000000000000000000, 1.000000000000000000 ) ) ;
#108 = CIRCLE ( 'NONE', #166, 6.249999999999998224 ) ;
#109 = DIRECTION ( 'NONE',  ( 1.000000000000000000, 0.0000000000000000000, 0.0000000000000000000 ) ) ;
#110 = DIRECTION ( 'NONE',  ( 0.0000000000000000000, 0.0000000000000000000, 1.000000000000000000 ) ) ;
#111 = EDGE_LOOP ( 'NONE', ( #33, #80, #152, #172 ) ) ;
#112 = DIRECTION ( 'NONE',  ( 0.0000000000000000000, 0.0000000000000000000, 1.000000000000000000 ) ) ;
#113 = CC_DESIGN_APPROVAL ( #93, ( #28 ) ) ;
#114 = PERSON_AND_ORGANIZATION_ROLE ( 'creator' ) ;
#115 = LOCAL_TIME ( 8, 57, 1.000000000000000000, #16 ) ;
#116 = APPROVAL_PERSON_ORGANIZATION ( #154, #93, #37 ) ;
#117 = ORIENTED_EDGE ( 'NONE', *, *, #2, .F. ) ;
#118 = APPROVAL ( #144, 'UNSPECIFIED' ) ;
#119 = AXIS2_PLACEMENT_3D ( 'NONE', #3, #70, #84 ) ;
#120 = COORDINATED_UNIVERSAL_TIME_OFFSET ( 5, 0, .BEHIND. ) ;
#121 = ORIENTED_EDGE ( 'NONE', *, *, #163, .F. ) ;
#122 =( LENGTH_UNIT ( ) NAMED_UNIT ( * ) SI_UNIT ( .MILLI., .METRE. ) );
#123 = DIRECTION ( 'NONE',  ( 1.000000000000000000, 0.0000000000000000000, 0.0000000000000000000 ) ) ;
#124 = DIRECTION ( 'NONE',  ( 1.000000000000000000, 0.0000000000000000000, -0.0000000000000000000 ) ) ;
#125 = SHAPE_DEFINITION_REPRESENTATION ( #79, #138 ) ;
#126 = PERSON_AND_ORGANIZATION_ROLE ( 'classification_officer' ) ;
#127 = ADVANCED_FACE ( 'NONE', ( #131 ), #139, .T. ) ;
#128 = CC_DESIGN_APPROVAL ( #118, ( #173 ) ) ;
#129 = UNCERTAINTY_MEASURE_WITH_UNIT (LENGTH_MEASURE( 1.000000000000000082E-05 ), #122, 'distance_accuracy_value', 'NONE');
#130 = ORGANIZATION ( 'UNSPECIFIED', 'UNSPECIFIED', '' ) ;
#131 = FACE_OUTER_BOUND ( 'NONE', #160, .T. ) ;
#132 = DATE_AND_TIME ( #71, #81 ) ;
#133 = AXIS2_PLACEMENT_3D ( 'NONE', #82, #165, #95 ) ;
#134 = COORDINATED_UNIVERSAL_TIME_OFFSET ( 5, 0, .BEHIND. ) ;
#135 = CC_DESIGN_DATE_AND_TIME_ASSIGNMENT ( #65, #63, ( #150 ) ) ;
#136 = DESIGN_CONTEXT ( 'detailed design', #100, 'design' ) ;
#137 = APPROVAL_DATE_TIME ( #68, #148 ) ;
#138 = ADVANCED_BREP_SHAPE_REPRESENTATION ( 'Web Model 47193_13350', ( #25, #151 ), #145 ) ;
#139 = PLANE ( 'NONE',  #56 ) ;
#140 = LOCAL_TIME ( 8, 57, 1.000000000000000000, #149 ) ;
#141 = DIRECTION ( 'NONE',  ( 0.0000000000000000000, 0.0000000000000000000, 1.000000000000000000 ) ) ;
#142 = CARTESIAN_POINT ( 'NONE',  ( -6.249999999999998224, 7.654042494670955634E-16, 0.0000000000000000000 ) ) ;
#143 = CARTESIAN_POINT ( 'NONE',  ( 0.0000000000000000000, 0.0000000000000000000, -2.000000000000000000 ) ) ;
#144 = APPROVAL_STATUS ( 'not_yet_approved' ) ;
#145 =( GEOMETRIC_REPRESENTATION_CONTEXT ( 3 ) GLOBAL_UNCERTAINTY_ASSIGNED_CONTEXT ( ( #129 ) ) GLOBAL_UNIT_ASSIGNED_CONTEXT ( ( #122, #45, #59 ) ) REPRESENTATION_CONTEXT ( 'NONE', 'WORKASPACE' ) );
#146 = APPROVAL_PERSON_ORGANIZATION ( #31, #118, #39 ) ;
#147 = CC_DESIGN_SECURITY_CLASSIFICATION ( #28, ( #173 ) ) ;
#148 = APPROVAL ( #47, 'UNSPECIFIED' ) ;
#149 = COORDINATED_UNIVERSAL_TIME_OFFSET ( 5, 0, .BEHIND. ) ;
#150 = PRODUCT_DEFINITION ( 'UNKNOWN', '', #173, #136 ) ;
#151 = AXIS2_PLACEMENT_3D ( 'NONE', #168, #20, #123 ) ;
#152 = ORIENTED_EDGE ( 'NONE', *, *, #2, .T. ) ;
#153 = CARTESIAN_POINT ( 'NONE',  ( -6.249999999999998224, 7.654042494670955634E-16, -2.000000000000000000 ) ) ;
#154 = PERSON_AND_ORGANIZATION ( #159, #130 ) ;
#155 = VERTEX_POINT ( 'NONE', #142 ) ;
#156 = CIRCLE ( 'NONE', #119, 6.249999999999998224 ) ;
#157 = CC_DESIGN_APPROVAL ( #148, ( #150 ) ) ;
#158 = CALENDAR_DATE ( 2020, 4, 11 ) ;
#159 = PERSON ( 'UNSPECIFIED', 'UNSPECIFIED', 'UNSPECIFIED', ('UNSPECIFIED'), ('UNSPECIFIED'), ('UNSPECIFIED') ) ;
#160 = EDGE_LOOP ( 'NONE', ( #161, #46 ) ) ;
#161 = ORIENTED_EDGE ( 'NONE', *, *, #162, .T. ) ;
#162 = EDGE_CURVE ( 'NONE', #50, #155, #92, .T. ) ;
#163 = EDGE_CURVE ( 'NONE', #75, #78, #156, .T. ) ;
#164 = CARTESIAN_POINT ( 'NONE',  ( 6.249999999999998224, 0.0000000000000000000, -2.000000000000000000 ) ) ;
#165 = DIRECTION ( 'NONE',  ( 0.0000000000000000000, 0.0000000000000000000, 1.000000000000000000 ) ) ;
#166 = AXIS2_PLACEMENT_3D ( 'NONE', #17, #18, #7 ) ;
#167 = MECHANICAL_CONTEXT ( 'NONE', #86, 'mechanical' ) ;
#168 = CARTESIAN_POINT ( 'NONE',  ( 0.0000000000000000000, 0.0000000000000000000, 0.0000000000000000000 ) ) ;
#169 = PERSON_AND_ORGANIZATION_ROLE ( 'creator' ) ;
#170 = CC_DESIGN_PERSON_AND_ORGANIZATION_ASSIGNMENT ( #26, #126, ( #28 ) ) ;
#171 = PERSON_AND_ORGANIZATION ( #159, #130 ) ;
#172 = ORIENTED_EDGE ( 'NONE', *, *, #83, .F. ) ;
#173 = PRODUCT_DEFINITION_FORMATION_WITH_SPECIFIED_SOURCE ( 'ANY', '', #103, .NOT_KNOWN. ) ;
#174 = CC_DESIGN_PERSON_AND_ORGANIZATION_ASSIGNMENT ( #171, #169, ( #150 ) ) ;
#175 = CC_DESIGN_PERSON_AND_ORGANIZATION_ASSIGNMENT ( #66, #8, ( #103 ) ) ;
ENDSEC;
END-ISO-10303-21;
