ISO-10303-21;
HEADER;
FILE_DESCRIPTION (( 'STEP AP214' ),
    '1' );
FILE_NAME ('TTN233919-E0W.STEP',
    '2021-04-05T19:04:16',
    ( '' ),
    ( '' ),
    'SwSTEP 2.0',
    'SolidWorks 2018',
    '' );
FILE_SCHEMA (( 'AUTOMOTIVE_DESIGN' ));
ENDSEC;

DATA;
#1 = PRODUCT_DEFINITION ( 'UNKNOWN', '', #15, #92 ) ;
#2 = LINE ( 'NONE', #42, #168 ) ;
#3 = ADVANCED_FACE ( 'NONE', ( #67 ), #184, .T. ) ;
#4 = VECTOR ( 'NONE', #81, 1000.000000000000000 ) ;
#5 = PLANE ( 'NONE',  #63 ) ;
#6 = CARTESIAN_POINT ( 'NONE',  ( 0.0000000000000000000, 0.0000000000000000000, 3.000000000000000000 ) ) ;
#7 = DIRECTION ( 'NONE',  ( 0.0000000000000000000, 1.000000000000000000, 0.0000000000000000000 ) ) ;
#8 = FACE_OUTER_BOUND ( 'NONE', #13, .T. ) ;
#9 = EDGE_CURVE ( 'NONE', #87, #43, #147, .T. ) ;
#10 = DIRECTION ( 'NONE',  ( 0.0000000000000000000, -0.0000000000000000000, 1.000000000000000000 ) ) ;
#11 = CARTESIAN_POINT ( 'NONE',  ( 35.00000000000000711, 52.00000000000000000, 0.0000000000000000000 ) ) ;
#12 = APPLICATION_PROTOCOL_DEFINITION ( 'draft international standard', 'automotive_design', 1998, #193 ) ;
#13 = EDGE_LOOP ( 'NONE', ( #84, #136, #31, #28 ) ) ;
#14 = PRESENTATION_STYLE_ASSIGNMENT (( #150 ) ) ;
#15 = PRODUCT_DEFINITION_FORMATION_WITH_SPECIFIED_SOURCE ( 'ANY', '', #77, .NOT_KNOWN. ) ;
#16 = DIRECTION ( 'NONE',  ( 0.0000000000000000000, 0.0000000000000000000, -1.000000000000000000 ) ) ;
#17 = EDGE_CURVE ( 'NONE', #70, #94, #180, .T. ) ;
#18 = CARTESIAN_POINT ( 'NONE',  ( 35.00000000000000711, 0.0000000000000000000, 3.000000000000000000 ) ) ;
#19 = CARTESIAN_POINT ( 'NONE',  ( 35.00000000000000711, 0.0000000000000000000, 3.000000000000000000 ) ) ;
#20 = ORIENTED_EDGE ( 'NONE', *, *, #17, .F. ) ;
#21 = CARTESIAN_POINT ( 'NONE',  ( 35.00000000000000711, 0.0000000000000000000, 3.000000000000000000 ) ) ;
#22 = PLANE ( 'NONE',  #103 ) ;
#23 = DIRECTION ( 'NONE',  ( 0.0000000000000000000, -0.0000000000000000000, -1.000000000000000000 ) ) ;
#24 = VECTOR ( 'NONE', #163, 1000.000000000000000 ) ;
#25 = PRODUCT_RELATED_PRODUCT_CATEGORY ( 'part', '', ( #77 ) ) ;
#26 = SURFACE_SIDE_STYLE ('',( #99 ) ) ;
#27 = DIRECTION ( 'NONE',  ( -0.0000000000000000000, -0.0000000000000000000, -1.000000000000000000 ) ) ;
#28 = ORIENTED_EDGE ( 'NONE', *, *, #181, .T. ) ;
#29 = VECTOR ( 'NONE', #173, 1000.000000000000000 ) ;
#30 = EDGE_CURVE ( 'NONE', #190, #70, #59, .T. ) ;
#31 = ORIENTED_EDGE ( 'NONE', *, *, #65, .F. ) ;
#32 = CARTESIAN_POINT ( 'NONE',  ( 35.00000000000000711, 52.00000000000000000, 3.000000000000000000 ) ) ;
#33 = EDGE_LOOP ( 'NONE', ( #62, #142, #104, #160 ) ) ;
#34 = DIRECTION ( 'NONE',  ( -1.000000000000000000, -0.0000000000000000000, -0.0000000000000000000 ) ) ;
#35 = PLANE ( 'NONE',  #108 ) ;
#36 = DIRECTION ( 'NONE',  ( 0.0000000000000000000, 0.0000000000000000000, -1.000000000000000000 ) ) ;
#37 = DIRECTION ( 'NONE',  ( -1.000000000000000000, 0.0000000000000000000, 0.0000000000000000000 ) ) ;
#38 =( NAMED_UNIT ( * ) SI_UNIT ( $, .STERADIAN. ) SOLID_ANGLE_UNIT ( ) );
#39 = EDGE_CURVE ( 'NONE', #190, #87, #74, .T. ) ;
#40 = ORIENTED_EDGE ( 'NONE', *, *, #46, .T. ) ;
#41 = APPLICATION_PROTOCOL_DEFINITION ( 'draft international standard', 'automotive_design', 1998, #151 ) ;
#42 = CARTESIAN_POINT ( 'NONE',  ( 0.0000000000000000000, 52.00000000000000000, 3.000000000000000000 ) ) ;
#43 = VERTEX_POINT ( 'NONE', #32 ) ;
#44 = ADVANCED_FACE ( 'NONE', ( #198 ), #35, .F. ) ;
#45 = ADVANCED_FACE ( 'NONE', ( #8 ), #188, .F. ) ;
#46 = EDGE_CURVE ( 'NONE', #94, #154, #182, .T. ) ;
#47 = DIRECTION ( 'NONE',  ( 0.0000000000000000000, 1.000000000000000000, 0.0000000000000000000 ) ) ;
#48 = AXIS2_PLACEMENT_3D ( 'NONE', #161, #116, #96 ) ;
#49 = FILL_AREA_STYLE_COLOUR ( '', #91 ) ;
#50 = ORIENTED_EDGE ( 'NONE', *, *, #39, .T. ) ;
#51 = CARTESIAN_POINT ( 'NONE',  ( 35.00000000000000711, 0.0000000000000000000, 3.000000000000000000 ) ) ;
#52 = CARTESIAN_POINT ( 'NONE',  ( 0.0000000000000000000, 52.00000000000000000, 0.0000000000000000000 ) ) ;
#53 =( NAMED_UNIT ( * ) PLANE_ANGLE_UNIT ( ) SI_UNIT ( $, .RADIAN. ) );
#54 =( NAMED_UNIT ( * ) SI_UNIT ( $, .STERADIAN. ) SOLID_ANGLE_UNIT ( ) );
#55 = DIRECTION ( 'NONE',  ( -0.0000000000000000000, -0.0000000000000000000, -1.000000000000000000 ) ) ;
#56 = SURFACE_SIDE_STYLE ('',( #156 ) ) ;
#57 =( NAMED_UNIT ( * ) PLANE_ANGLE_UNIT ( ) SI_UNIT ( $, .RADIAN. ) );
#58 = UNCERTAINTY_MEASURE_WITH_UNIT (LENGTH_MEASURE( 1.000000000000000082E-05 ), #86, 'distance_accuracy_value', 'NONE');
#59 = LINE ( 'NONE', #6, #4 ) ;
#60 = STYLED_ITEM ( 'NONE', ( #14 ), #179 ) ;
#61 = LINE ( 'NONE', #162, #24 ) ;
#62 = ORIENTED_EDGE ( 'NONE', *, *, #111, .T. ) ;
#63 = AXIS2_PLACEMENT_3D ( 'NONE', #100, #171, #10 ) ;
#64 = LINE ( 'NONE', #21, #145 ) ;
#65 = EDGE_CURVE ( 'NONE', #106, #190, #61, .T. ) ;
#66 = ADVANCED_BREP_SHAPE_REPRESENTATION ( 'TTN233919-E0W', ( #179, #197 ), #155 ) ;
#67 = FACE_OUTER_BOUND ( 'NONE', #112, .T. ) ;
#68 = CARTESIAN_POINT ( 'NONE',  ( 0.0000000000000000000, 0.0000000000000000000, 0.0000000000000000000 ) ) ;
#69 = CARTESIAN_POINT ( 'NONE',  ( 0.0000000000000000000, 52.00000000000000000, 3.000000000000000000 ) ) ;
#70 = VERTEX_POINT ( 'NONE', #68 ) ;
#71 = EDGE_CURVE ( 'NONE', #169, #70, #177, .T. ) ;
#72 = ORIENTED_EDGE ( 'NONE', *, *, #93, .T. ) ;
#73 =( GEOMETRIC_REPRESENTATION_CONTEXT ( 3 ) GLOBAL_UNCERTAINTY_ASSIGNED_CONTEXT ( ( #202 ) ) GLOBAL_UNIT_ASSIGNED_CONTEXT ( ( #166, #139, #54 ) ) REPRESENTATION_CONTEXT ( 'NONE', 'WORKASPACE' ) );
#74 = LINE ( 'NONE', #83, #164 ) ;
#75 = LINE ( 'NONE', #69, #29 ) ;
#76 = ORIENTED_EDGE ( 'NONE', *, *, #111, .F. ) ;
#77 = PRODUCT ( 'TTN233919-E0W', 'TTN233919-E0W', '', ( #102 ) ) ;
#78 = DIRECTION ( 'NONE',  ( 0.0000000000000000000, 0.0000000000000000000, 1.000000000000000000 ) ) ;
#79 = ORIENTED_EDGE ( 'NONE', *, *, #17, .T. ) ;
#80 = CARTESIAN_POINT ( 'NONE',  ( 0.0000000000000000000, 0.0000000000000000000, 0.0000000000000000000 ) ) ;
#81 = DIRECTION ( 'NONE',  ( -0.0000000000000000000, -0.0000000000000000000, -1.000000000000000000 ) ) ;
#82 = PRESENTATION_LAYER_ASSIGNMENT (  '', '', ( #191 ) ) ;
#83 = CARTESIAN_POINT ( 'NONE',  ( 0.0000000000000000000, 0.0000000000000000000, 3.000000000000000000 ) ) ;
#84 = ORIENTED_EDGE ( 'NONE', *, *, #71, .T. ) ;
#85 = CARTESIAN_POINT ( 'NONE',  ( 0.0000000000000000000, 0.0000000000000000000, 3.000000000000000000 ) ) ;
#86 =( LENGTH_UNIT ( ) NAMED_UNIT ( * ) SI_UNIT ( .MILLI., .METRE. ) );
#87 = VERTEX_POINT ( 'NONE', #19 ) ;
#88 =( LENGTH_UNIT ( ) NAMED_UNIT ( * ) SI_UNIT ( .MILLI., .METRE. ) );
#89 = ORIENTED_EDGE ( 'NONE', *, *, #71, .F. ) ;
#90 = AXIS2_PLACEMENT_3D ( 'NONE', #124, #120, #23 ) ;
#91 = COLOUR_RGB ( '',0.7529411764705882248, 0.7529411764705882248, 0.7529411764705882248 ) ;
#92 = PRODUCT_DEFINITION_CONTEXT ( 'detailed design', #193, 'design' ) ;
#93 = EDGE_CURVE ( 'NONE', #87, #94, #64, .T. ) ;
#94 = VERTEX_POINT ( 'NONE', #134 ) ;
#95 = DIRECTION ( 'NONE',  ( -0.0000000000000000000, -1.000000000000000000, -0.0000000000000000000 ) ) ;
#96 = DIRECTION ( 'NONE',  ( 0.0000000000000000000, 0.0000000000000000000, -1.000000000000000000 ) ) ;
#97 = ORIENTED_EDGE ( 'NONE', *, *, #9, .F. ) ;
#98 = CARTESIAN_POINT ( 'NONE',  ( 35.00000000000000711, 0.0000000000000000000, 0.0000000000000000000 ) ) ;
#99 = SURFACE_STYLE_FILL_AREA ( #125 ) ;
#100 = CARTESIAN_POINT ( 'NONE',  ( 0.0000000000000000000, 0.0000000000000000000, 3.000000000000000000 ) ) ;
#101 = VECTOR ( 'NONE', #7, 1000.000000000000000 ) ;
#102 = PRODUCT_CONTEXT ( 'NONE', #151, 'mechanical' ) ;
#103 = AXIS2_PLACEMENT_3D ( 'NONE', #85, #36, #189 ) ;
#104 = ORIENTED_EDGE ( 'NONE', *, *, #105, .F. ) ;
#105 = EDGE_CURVE ( 'NONE', #43, #106, #75, .T. ) ;
#106 = VERTEX_POINT ( 'NONE', #148 ) ;
#107 = SHAPE_DEFINITION_REPRESENTATION ( #159, #66 ) ;
#108 = AXIS2_PLACEMENT_3D ( 'NONE', #18, #37, #78 ) ;
#109 = UNCERTAINTY_MEASURE_WITH_UNIT (LENGTH_MEASURE( 1.000000000000000082E-05 ), #88, 'distance_accuracy_value', 'NONE');
#110 = ORIENTED_EDGE ( 'NONE', *, *, #65, .T. ) ;
#111 = EDGE_CURVE ( 'NONE', #154, #169, #158, .T. ) ;
#112 = EDGE_LOOP ( 'NONE', ( #89, #76, #187, #20 ) ) ;
#113 = ADVANCED_FACE ( 'NONE', ( #133 ), #22, .F. ) ;
#114 = DIRECTION ( 'NONE',  ( 1.000000000000000000, 0.0000000000000000000, 0.0000000000000000000 ) ) ;
#115 = ORIENTED_EDGE ( 'NONE', *, *, #30, .T. ) ;
#116 = DIRECTION ( 'NONE',  ( 1.000000000000000000, 0.0000000000000000000, 0.0000000000000000000 ) ) ;
#117 = MECHANICAL_DESIGN_GEOMETRIC_PRESENTATION_REPRESENTATION (  '', ( #191 ), #127 ) ;
#118 = CARTESIAN_POINT ( 'NONE',  ( 0.0000000000000000000, 0.0000000000000000000, 0.0000000000000000000 ) ) ;
#119 = VECTOR ( 'NONE', #95, 1000.000000000000000 ) ;
#120 = DIRECTION ( 'NONE',  ( 0.0000000000000000000, -1.000000000000000000, 0.0000000000000000000 ) ) ;
#121 = VECTOR ( 'NONE', #34, 1000.000000000000000 ) ;
#122 = DIRECTION ( 'NONE',  ( 1.000000000000000000, 0.0000000000000000000, 0.0000000000000000000 ) ) ;
#123 = ORIENTED_EDGE ( 'NONE', *, *, #105, .T. ) ;
#124 = CARTESIAN_POINT ( 'NONE',  ( 0.0000000000000000000, 52.00000000000000000, 3.000000000000000000 ) ) ;
#125 = FILL_AREA_STYLE ('',( #149 ) ) ;
#126 = COLOUR_RGB ( '',0.7529411764705882248, 0.7529411764705882248, 0.7529411764705882248 ) ;
#127 =( GEOMETRIC_REPRESENTATION_CONTEXT ( 3 ) GLOBAL_UNCERTAINTY_ASSIGNED_CONTEXT ( ( #58 ) ) GLOBAL_UNIT_ASSIGNED_CONTEXT ( ( #86, #53, #165 ) ) REPRESENTATION_CONTEXT ( 'NONE', 'WORKASPACE' ) );
#128 = VECTOR ( 'NONE', #114, 1000.000000000000000 ) ;
#129 = DIRECTION ( 'NONE',  ( -1.000000000000000000, 0.0000000000000000000, -0.0000000000000000000 ) ) ;
#130 = ADVANCED_FACE ( 'NONE', ( #186 ), #5, .F. ) ;
#131 = EDGE_CURVE ( 'NONE', #43, #154, #143, .T. ) ;
#132 = FILL_AREA_STYLE ('',( #49 ) ) ;
#133 = FACE_OUTER_BOUND ( 'NONE', #183, .T. ) ;
#134 = CARTESIAN_POINT ( 'NONE',  ( 35.00000000000000711, 0.0000000000000000000, 0.0000000000000000000 ) ) ;
#135 = DIRECTION ( 'NONE',  ( 1.000000000000000000, 0.0000000000000000000, 0.0000000000000000000 ) ) ;
#136 = ORIENTED_EDGE ( 'NONE', *, *, #30, .F. ) ;
#137 = PRESENTATION_LAYER_ASSIGNMENT (  '', '', ( #60 ) ) ;
#138 = VECTOR ( 'NONE', #55, 1000.000000000000000 ) ;
#139 =( NAMED_UNIT ( * ) PLANE_ANGLE_UNIT ( ) SI_UNIT ( $, .RADIAN. ) );
#140 = CARTESIAN_POINT ( 'NONE',  ( 35.00000000000000711, 52.00000000000000000, 3.000000000000000000 ) ) ;
#141 = CARTESIAN_POINT ( 'NONE',  ( 0.0000000000000000000, 0.0000000000000000000, 3.000000000000000000 ) ) ;
#142 = ORIENTED_EDGE ( 'NONE', *, *, #181, .F. ) ;
#143 = LINE ( 'NONE', #140, #138 ) ;
#144 = MECHANICAL_DESIGN_GEOMETRIC_PRESENTATION_REPRESENTATION (  '', ( #60 ), #73 ) ;
#145 = VECTOR ( 'NONE', #175, 1000.000000000000000 ) ;
#146 = CARTESIAN_POINT ( 'NONE',  ( 0.0000000000000000000, 52.00000000000000000, 0.0000000000000000000 ) ) ;
#147 = LINE ( 'NONE', #51, #200 ) ;
#148 = CARTESIAN_POINT ( 'NONE',  ( 0.0000000000000000000, 52.00000000000000000, 3.000000000000000000 ) ) ;
#149 = FILL_AREA_STYLE_COLOUR ( '', #126 ) ;
#150 = SURFACE_STYLE_USAGE ( .BOTH. , #56 ) ;
#151 = APPLICATION_CONTEXT ( 'automotive_design' ) ;
#152 = PLANE ( 'NONE',  #90 ) ;
#153 = EDGE_LOOP ( 'NONE', ( #79, #157, #199, #115 ) ) ;
#154 = VERTEX_POINT ( 'NONE', #11 ) ;
#155 =( GEOMETRIC_REPRESENTATION_CONTEXT ( 3 ) GLOBAL_UNCERTAINTY_ASSIGNED_CONTEXT ( ( #109 ) ) GLOBAL_UNIT_ASSIGNED_CONTEXT ( ( #88, #57, #38 ) ) REPRESENTATION_CONTEXT ( 'NONE', 'WORKASPACE' ) );
#156 = SURFACE_STYLE_FILL_AREA ( #132 ) ;
#157 = ORIENTED_EDGE ( 'NONE', *, *, #93, .F. ) ;
#158 = LINE ( 'NONE', #146, #121 ) ;
#159 = PRODUCT_DEFINITION_SHAPE ( 'NONE', 'NONE',  #1 ) ;
#160 = ORIENTED_EDGE ( 'NONE', *, *, #131, .T. ) ;
#161 = CARTESIAN_POINT ( 'NONE',  ( 0.0000000000000000000, 0.0000000000000000000, 3.000000000000000000 ) ) ;
#162 = CARTESIAN_POINT ( 'NONE',  ( 0.0000000000000000000, 0.0000000000000000000, 3.000000000000000000 ) ) ;
#163 = DIRECTION ( 'NONE',  ( -0.0000000000000000000, -1.000000000000000000, -0.0000000000000000000 ) ) ;
#164 = VECTOR ( 'NONE', #135, 1000.000000000000000 ) ;
#165 =( NAMED_UNIT ( * ) SI_UNIT ( $, .STERADIAN. ) SOLID_ANGLE_UNIT ( ) );
#166 =( LENGTH_UNIT ( ) NAMED_UNIT ( * ) SI_UNIT ( .MILLI., .METRE. ) );
#167 = ORIENTED_EDGE ( 'NONE', *, *, #9, .T. ) ;
#168 = VECTOR ( 'NONE', #27, 1000.000000000000000 ) ;
#169 = VERTEX_POINT ( 'NONE', #52 ) ;
#170 = ADVANCED_FACE ( 'NONE', ( #192 ), #152, .F. ) ;
#171 = DIRECTION ( 'NONE',  ( 0.0000000000000000000, 1.000000000000000000, 0.0000000000000000000 ) ) ;
#172 = CLOSED_SHELL ( 'NONE', ( #45, #130, #44, #170, #113, #3 ) ) ;
#173 = DIRECTION ( 'NONE',  ( -1.000000000000000000, -0.0000000000000000000, -0.0000000000000000000 ) ) ;
#174 = AXIS2_PLACEMENT_3D ( 'NONE', #201, #16, #129 ) ;
#175 = DIRECTION ( 'NONE',  ( -0.0000000000000000000, -0.0000000000000000000, -1.000000000000000000 ) ) ;
#176 = SURFACE_STYLE_USAGE ( .BOTH. , #26 ) ;
#177 = LINE ( 'NONE', #80, #119 ) ;
#178 = CARTESIAN_POINT ( 'NONE',  ( 0.0000000000000000000, 0.0000000000000000000, 0.0000000000000000000 ) ) ;
#179 = MANIFOLD_SOLID_BREP ( 'Boss-Extrude1', #172 ) ;
#180 = LINE ( 'NONE', #118, #128 ) ;
#181 = EDGE_CURVE ( 'NONE', #106, #169, #2, .T. ) ;
#182 = LINE ( 'NONE', #98, #101 ) ;
#183 = EDGE_LOOP ( 'NONE', ( #110, #50, #167, #123 ) ) ;
#184 = PLANE ( 'NONE',  #174 ) ;
#185 = ORIENTED_EDGE ( 'NONE', *, *, #131, .F. ) ;
#186 = FACE_OUTER_BOUND ( 'NONE', #153, .T. ) ;
#187 = ORIENTED_EDGE ( 'NONE', *, *, #46, .F. ) ;
#188 = PLANE ( 'NONE',  #48 ) ;
#189 = DIRECTION ( 'NONE',  ( -1.000000000000000000, 0.0000000000000000000, -0.0000000000000000000 ) ) ;
#190 = VERTEX_POINT ( 'NONE', #141 ) ;
#191 = STYLED_ITEM ( 'NONE', ( #196 ), #66 ) ;
#192 = FACE_OUTER_BOUND ( 'NONE', #33, .T. ) ;
#193 = APPLICATION_CONTEXT ( 'automotive_design' ) ;
#194 = DIRECTION ( 'NONE',  ( 0.0000000000000000000, 0.0000000000000000000, 1.000000000000000000 ) ) ;
#195 = EDGE_LOOP ( 'NONE', ( #40, #185, #97, #72 ) ) ;
#196 = PRESENTATION_STYLE_ASSIGNMENT (( #176 ) ) ;
#197 = AXIS2_PLACEMENT_3D ( 'NONE', #178, #194, #122 ) ;
#198 = FACE_OUTER_BOUND ( 'NONE', #195, .T. ) ;
#199 = ORIENTED_EDGE ( 'NONE', *, *, #39, .F. ) ;
#200 = VECTOR ( 'NONE', #47, 1000.000000000000000 ) ;
#201 = CARTESIAN_POINT ( 'NONE',  ( 0.0000000000000000000, 0.0000000000000000000, 0.0000000000000000000 ) ) ;
#202 = UNCERTAINTY_MEASURE_WITH_UNIT (LENGTH_MEASURE( 1.000000000000000082E-05 ), #166, 'distance_accuracy_value', 'NONE');
ENDSEC;
END-ISO-10303-21;
