ISO-10303-21;
HEADER;
FILE_DESCRIPTION (( 'STEP AP203' ),
    '1' );
FILE_NAME ('25002-E0W.STEP',
    '2012-09-28T16:15:59',
    ( 'Admin' ),
    ( 'Thorlabs, Inc.' ),
    'SwSTEP 2.0',
    'SolidWorks 2011',
    '' );
FILE_SCHEMA (( 'CONFIG_CONTROL_DESIGN' ));
ENDSEC;

DATA;
#1 = EDGE_CURVE ( 'NONE', #33, #43, #146, .T. ) ;
#2 = ORIENTED_EDGE ( 'NONE', *, *, #82, .T. ) ;
#3 = EDGE_LOOP ( 'NONE', ( #8, #12, #13, #6 ) ) ;
#4 = CARTESIAN_POINT ( 'NONE',  ( -0.01513780900200007600, 1.853846934040338200E-018, -228.8649995019273700 ) ) ;
#5 = EDGE_CURVE ( 'NONE', #30, #38, #215, .T. ) ;
#6 = ORIENTED_EDGE ( 'NONE', *, *, #1, .F. ) ;
#7 = ADVANCED_FACE ( 'NONE', ( #129 ), #147, .T. ) ;
#8 = ORIENTED_EDGE ( 'NONE', *, *, #106, .F. ) ;
#9 = ORIENTED_EDGE ( 'NONE', *, *, #17, .T. ) ;
#10 = EDGE_LOOP ( 'NONE', ( #19, #21, #11, #20 ) ) ;
#11 = ORIENTED_EDGE ( 'NONE', *, *, #110, .T. ) ;
#12 = ORIENTED_EDGE ( 'NONE', *, *, #79, .T. ) ;
#13 = ORIENTED_EDGE ( 'NONE', *, *, #105, .T. ) ;
#14 = EDGE_LOOP ( 'NONE', ( #18, #23, #15, #9 ) ) ;
#15 = ORIENTED_EDGE ( 'NONE', *, *, #46, .T. ) ;
#16 = ADVANCED_FACE ( 'NONE', ( #190 ), #143, .T. ) ;
#17 = EDGE_CURVE ( 'NONE', #56, #52, #141, .T. ) ;
#18 = ORIENTED_EDGE ( 'NONE', *, *, #35, .F. ) ;
#19 = ORIENTED_EDGE ( 'NONE', *, *, #100, .F. ) ;
#20 = ORIENTED_EDGE ( 'NONE', *, *, #17, .F. ) ;
#21 = ORIENTED_EDGE ( 'NONE', *, *, #1, .T. ) ;
#22 = DIRECTION ( 'NONE',  ( 1.224646799147353200E-016, 1.000000000000000000, 0.0000000000000000000 ) ) ;
#23 = ORIENTED_EDGE ( 'NONE', *, *, #5, .F. ) ;
#24 = DIRECTION ( 'NONE',  ( -1.000000000000000000, 1.224646799147353200E-016, 0.0000000000000000000 ) ) ;
#25 = MANIFOLD_SOLID_BREP ( '25002-001-1-solid1', #107 ) ;
#26 = CALENDAR_DATE ( 2012, 28, 9 ) ;
#27 = ORIENTED_EDGE ( 'NONE', *, *, #36, .F. ) ;
#28 = ORIENTED_EDGE ( 'NONE', *, *, #42, .T. ) ;
#29 = ADVANCED_FACE ( 'NONE', ( #221 ), #135, .T. ) ;
#30 = VERTEX_POINT ( 'NONE', #132 ) ;
#31 = DATE_TIME_ROLE ( 'creation_date' ) ;
#32 = DATE_AND_TIME ( #26, #234 ) ;
#33 = VERTEX_POINT ( 'NONE', #142 ) ;
#34 = ORIENTED_EDGE ( 'NONE', *, *, #100, .T. ) ;
#35 = EDGE_CURVE ( 'NONE', #38, #52, #125, .T. ) ;
#36 = EDGE_CURVE ( 'NONE', #38, #30, #134, .T. ) ;
#37 = ORIENTED_EDGE ( 'NONE', *, *, #40, .T. ) ;
#38 = VERTEX_POINT ( 'NONE', #121 ) ;
#39 = ADVANCED_FACE ( 'NONE', ( #120 ), #133, .T. ) ;
#40 = EDGE_CURVE ( 'NONE', #43, #33, #131, .T. ) ;
#41 = ORIENTED_EDGE ( 'NONE', *, *, #46, .F. ) ;
#42 = EDGE_CURVE ( 'NONE', #52, #56, #116, .T. ) ;
#43 = VERTEX_POINT ( 'NONE', #128 ) ;
#44 = EDGE_LOOP ( 'NONE', ( #37, #34, #97, #96 ) ) ;
#45 = ORIENTED_EDGE ( 'NONE', *, *, #35, .T. ) ;
#46 = EDGE_CURVE ( 'NONE', #30, #56, #112, .T. ) ;
#47 = PERSON_AND_ORGANIZATION ( #284, #283 ) ;
#48 = CC_DESIGN_DATE_AND_TIME_ASSIGNMENT ( #32, #31, ( #250 ) ) ;
#49 = APPROVAL_PERSON_ORGANIZATION ( #47, #50, #62 ) ;
#50 = APPROVAL ( #53, 'UNSPECIFIED' ) ;
#51 = LINE ( 'NONE', #63, #60 ) ;
#52 = VERTEX_POINT ( 'NONE', #204 ) ;
#53 = APPROVAL_STATUS ( 'not_yet_approved' ) ;
#54 = COORDINATED_UNIVERSAL_TIME_OFFSET ( 5, 0, .BEHIND. ) ;
#55 = DIRECTION ( 'NONE',  ( -0.0000000000000000000, -0.0000000000000000000, 1.000000000000000000 ) ) ;
#56 = VERTEX_POINT ( 'NONE', #214 ) ;
#57 = CC_DESIGN_APPROVAL ( #50, ( #69 ) ) ;
#58 = LOCAL_TIME ( 12, 15, 59.00000000000000000, #54 ) ;
#59 = APPROVAL_DATE_TIME ( #66, #50 ) ;
#60 = VECTOR ( 'NONE', #55, 1000.000000000000000 ) ;
#61 = EDGE_LOOP ( 'NONE', ( #27, #45, #28, #41 ) ) ;
#62 = APPROVAL_ROLE ( '' ) ;
#63 = CARTESIAN_POINT ( 'NONE',  ( -12.69999999999999900, 1.555301434917138400E-015, 22.30948260650616900 ) ) ;
#64 = CC_DESIGN_PERSON_AND_ORGANIZATION_ASSIGNMENT ( #152, #151, ( #153 ) ) ;
#65 = CALENDAR_DATE ( 2012, 28, 9 ) ;
#66 = DATE_AND_TIME ( #65, #58 ) ;
#67 = TOROIDAL_SURFACE ( 'NONE', #73, 0.01513780900200007600, 230.0400000000000200 ) ;
#68 = FACE_OUTER_BOUND ( 'NONE', #103, .T. ) ;
#69 = PRODUCT_DEFINITION_FORMATION_WITH_SPECIFIED_SOURCE ( 'ANY', '', #285, .NOT_KNOWN. ) ;
#70 = CARTESIAN_POINT ( 'NONE',  ( -12.55857864376269000, 1.546641874354783400E-015, -1.174999999999998900 ) ) ;
#71 = DIRECTION ( 'NONE',  ( 1.000000000000000000, 0.0000000000000000000, 0.0000000000000000000 ) ) ;
#72 = DIRECTION ( 'NONE',  ( -0.0000000000000000000, -0.0000000000000000000, 1.000000000000000000 ) ) ;
#73 = AXIS2_PLACEMENT_3D ( 'NONE', #74, #72, #71 ) ;
#74 = CARTESIAN_POINT ( 'NONE',  ( 0.0000000000000000000, 0.0000000000000000000, -228.8649995019273700 ) ) ;
#75 = EDGE_LOOP ( 'NONE', ( #90, #91, #89 ) ) ;
#76 = ADVANCED_FACE ( 'NONE', ( #196 ), #197, .F. ) ;
#77 = EDGE_LOOP ( 'NONE', ( #86, #92 ) ) ;
#78 = ADVANCED_FACE ( 'NONE', ( #193 ), #207, .T. ) ;
#79 = EDGE_CURVE ( 'NONE', #99, #85, #203, .T. ) ;
#80 = ORIENTED_EDGE ( 'NONE', *, *, #5, .T. ) ;
#81 = VERTEX_POINT ( 'NONE', #185 ) ;
#82 = EDGE_CURVE ( 'NONE', #38, #81, #184, .T. ) ;
#83 = ADVANCED_FACE ( 'NONE', ( #188 ), #186, .T. ) ;
#84 = ORIENTED_EDGE ( 'NONE', *, *, #102, .T. ) ;
#85 = VERTEX_POINT ( 'NONE', #175 ) ;
#86 = ORIENTED_EDGE ( 'NONE', *, *, #102, .F. ) ;
#87 = EDGE_LOOP ( 'NONE', ( #88, #80, #2 ) ) ;
#88 = ORIENTED_EDGE ( 'NONE', *, *, #95, .F. ) ;
#89 = ORIENTED_EDGE ( 'NONE', *, *, #82, .F. ) ;
#90 = ORIENTED_EDGE ( 'NONE', *, *, #36, .T. ) ;
#91 = ORIENTED_EDGE ( 'NONE', *, *, #95, .T. ) ;
#92 = ORIENTED_EDGE ( 'NONE', *, *, #79, .F. ) ;
#93 = ADVANCED_FACE ( 'NONE', ( #173 ), #67, .T. ) ;
#94 = ORIENTED_EDGE ( 'NONE', *, *, #40, .F. ) ;
#95 = EDGE_CURVE ( 'NONE', #30, #81, #161, .T. ) ;
#96 = ORIENTED_EDGE ( 'NONE', *, *, #110, .F. ) ;
#97 = ORIENTED_EDGE ( 'NONE', *, *, #42, .F. ) ;
#98 = CC_DESIGN_PERSON_AND_ORGANIZATION_ASSIGNMENT ( #108, #109, ( #69 ) ) ;
#99 = VERTEX_POINT ( 'NONE', #70 ) ;
#100 = EDGE_CURVE ( 'NONE', #33, #56, #51, .T. ) ;
#101 = ADVANCED_FACE ( 'NONE', ( #68 ), #164, .T. ) ;
#102 = EDGE_CURVE ( 'NONE', #85, #99, #264, .T. ) ;
#103 = EDGE_LOOP ( 'NONE', ( #84, #111, #94, #104 ) ) ;
#104 = ORIENTED_EDGE ( 'NONE', *, *, #105, .F. ) ;
#105 = EDGE_CURVE ( 'NONE', #85, #43, #261, .T. ) ;
#106 = EDGE_CURVE ( 'NONE', #99, #33, #280, .T. ) ;
#107 = CLOSED_SHELL ( 'NONE', ( #29, #39, #101, #93, #83, #76, #78, #7, #16 ) ) ;
#108 = PERSON_AND_ORGANIZATION ( #284, #283 ) ;
#109 = PERSON_AND_ORGANIZATION_ROLE ( 'creator' ) ;
#110 = EDGE_CURVE ( 'NONE', #43, #52, #276, .T. ) ;
#111 = ORIENTED_EDGE ( 'NONE', *, *, #106, .T. ) ;
#112 = LINE ( 'NONE', #202, #201 ) ;
#113 = DIRECTION ( 'NONE',  ( -0.0000000000000000000, -0.0000000000000000000, 1.000000000000000000 ) ) ;
#114 = CARTESIAN_POINT ( 'NONE',  ( 0.0000000000000000000, 0.0000000000000000000, 22.30948260650616900 ) ) ;
#115 = DIRECTION ( 'NONE',  ( -0.0000000000000000000, -0.0000000000000000000, 1.000000000000000000 ) ) ;
#116 = CIRCLE ( 'NONE', #212, 12.69999999999999900 ) ;
#117 = AXIS2_PLACEMENT_3D ( 'NONE', #114, #113, #213 ) ;
#118 = DIRECTION ( 'NONE',  ( 1.000000000000000000, 0.0000000000000000000, 0.0000000000000000000 ) ) ;
#119 = DIRECTION ( 'NONE',  ( -0.0000000000000000000, -0.0000000000000000000, 1.000000000000000000 ) ) ;
#120 = FACE_OUTER_BOUND ( 'NONE', #44, .T. ) ;
#121 = CARTESIAN_POINT ( 'NONE',  ( 12.55857864376293000, 0.0000000000000000000, 0.8327664689780772700 ) ) ;
#122 = DIRECTION ( 'NONE',  ( 0.7071067811865431300, 8.659560562354878600E-017, -0.7071067811865519000 ) ) ;
#123 = VECTOR ( 'NONE', #122, 1000.000000000000000 ) ;
#124 = CARTESIAN_POINT ( 'NONE',  ( 12.69999999999999900, 1.555301434917138400E-015, 0.6913451127407814800 ) ) ;
#125 = LINE ( 'NONE', #124, #123 ) ;
#126 = CARTESIAN_POINT ( 'NONE',  ( 0.0000000000000000000, 0.0000000000000000000, -1.033578643762689300 ) ) ;
#127 = AXIS2_PLACEMENT_3D ( 'NONE', #137, #119, #118 ) ;
#128 = CARTESIAN_POINT ( 'NONE',  ( 12.69999999999999900, 0.0000000000000000000, -1.033578643762689300 ) ) ;
#129 = FACE_OUTER_BOUND ( 'NONE', #10, .T. ) ;
#130 = CARTESIAN_POINT ( 'NONE',  ( 0.0000000000000000000, 0.0000000000000000000, 0.6913451127407814800 ) ) ;
#131 = CIRCLE ( 'NONE', #209, 12.69999999999999900 ) ;
#132 = CARTESIAN_POINT ( 'NONE',  ( -12.55857864376293000, 1.537982313792457800E-015, 0.8327664689780772700 ) ) ;
#133 = CYLINDRICAL_SURFACE ( 'NONE', #117, 12.69999999999999900 ) ;
#134 = CIRCLE ( 'NONE', #127, 12.55857864376269200 ) ;
#135 = CONICAL_SURFACE ( 'NONE', #136, 12.69999999999999900, 0.7853981633974420600 ) ;
#136 = AXIS2_PLACEMENT_3D ( 'NONE', #150, #216, #217 ) ;
#137 = CARTESIAN_POINT ( 'NONE',  ( 0.0000000000000000000, 0.0000000000000000000, 0.8327664689780911500 ) ) ;
#138 = DIRECTION ( 'NONE',  ( 1.000000000000000000, 0.0000000000000000000, 0.0000000000000000000 ) ) ;
#139 = DIRECTION ( 'NONE',  ( -0.0000000000000000000, -0.0000000000000000000, 1.000000000000000000 ) ) ;
#140 = AXIS2_PLACEMENT_3D ( 'NONE', #149, #139, #138 ) ;
#141 = CIRCLE ( 'NONE', #140, 12.69999999999999900 ) ;
#142 = CARTESIAN_POINT ( 'NONE',  ( -12.69999999999999900, 1.555301434917138400E-015, -1.033578643762689300 ) ) ;
#143 = CONICAL_SURFACE ( 'NONE', #220, 12.69999999999999900, 0.7853981633974420600 ) ;
#144 = CARTESIAN_POINT ( 'NONE',  ( 0.0000000000000000000, 0.0000000000000000000, 22.30948260650616900 ) ) ;
#145 = AXIS2_PLACEMENT_3D ( 'NONE', #222, #191, #148 ) ;
#146 = CIRCLE ( 'NONE', #145, 12.69999999999999900 ) ;
#147 = CYLINDRICAL_SURFACE ( 'NONE', #154, 12.69999999999999900 ) ;
#148 = DIRECTION ( 'NONE',  ( 1.000000000000000000, 0.0000000000000000000, 0.0000000000000000000 ) ) ;
#149 = CARTESIAN_POINT ( 'NONE',  ( 0.0000000000000000000, 0.0000000000000000000, 0.6913451127407814800 ) ) ;
#150 = CARTESIAN_POINT ( 'NONE',  ( 0.0000000000000000000, 0.0000000000000000000, 0.6913451127407814800 ) ) ;
#151 = PERSON_AND_ORGANIZATION_ROLE ( 'classification_officer' ) ;
#152 = PERSON_AND_ORGANIZATION ( #284, #283 ) ;
#153 = SECURITY_CLASSIFICATION ( '', '', #162 ) ;
#154 = AXIS2_PLACEMENT_3D ( 'NONE', #144, #224, #223 ) ;
#155 = DIRECTION ( 'NONE',  ( 1.000000000000000000, 0.0000000000000000000, 0.0000000000000000000 ) ) ;
#156 = DIRECTION ( 'NONE',  ( -0.0000000000000000000, -0.0000000000000000000, 1.000000000000000000 ) ) ;
#157 = CARTESIAN_POINT ( 'NONE',  ( 0.0000000000000000000, 0.0000000000000000000, 0.8327664689780911500 ) ) ;
#158 = AXIS2_PLACEMENT_3D ( 'NONE', #157, #156, #155 ) ;
#159 = CC_DESIGN_PERSON_AND_ORGANIZATION_ASSIGNMENT ( #166, #165, ( #69 ) ) ;
#160 = AXIS2_PLACEMENT_3D ( 'NONE', #4, #22, #24 ) ;
#161 = CIRCLE ( 'NONE', #160, 230.0400000000000200 ) ;
#162 = SECURITY_CLASSIFICATION_LEVEL ( 'unclassified' ) ;
#163 = DIRECTION ( 'NONE',  ( 1.000000000000000000, 0.0000000000000000000, 0.0000000000000000000 ) ) ;
#164 = CONICAL_SURFACE ( 'NONE', #176, 12.55857864376269000, 0.7853981633974482800 ) ;
#165 = PERSON_AND_ORGANIZATION_ROLE ( 'design_supplier' ) ;
#166 = PERSON_AND_ORGANIZATION ( #284, #283 ) ;
#167 = DIRECTION ( 'NONE',  ( 0.0000000000000000000, 0.0000000000000000000, -1.000000000000000000 ) ) ;
#168 = DIRECTION ( 'NONE',  ( 0.0000000000000000000, -1.000000000000000000, 0.0000000000000000000 ) ) ;
#169 = CARTESIAN_POINT ( 'NONE',  ( 0.01513780900200007600, 0.0000000000000000000, -228.8649995019273700 ) ) ;
#170 = DIRECTION ( 'NONE',  ( -0.0000000000000000000, -0.0000000000000000000, 1.000000000000000000 ) ) ;
#171 = DIRECTION ( 'NONE',  ( -0.0000000000000000000, -0.0000000000000000000, 1.000000000000000000 ) ) ;
#172 = CARTESIAN_POINT ( 'NONE',  ( 0.0000000000000000000, 0.0000000000000000000, -1.174999999999998900 ) ) ;
#173 = FACE_OUTER_BOUND ( 'NONE', #75, .T. ) ;
#174 = AXIS2_PLACEMENT_3D ( 'NONE', #181, #170, #187 ) ;
#175 = CARTESIAN_POINT ( 'NONE',  ( 12.55857864376269000, 0.0000000000000000000, -1.174999999999998900 ) ) ;
#176 = AXIS2_PLACEMENT_3D ( 'NONE', #172, #171, #163 ) ;
#177 = AXIS2_PLACEMENT_3D ( 'NONE', #169, #168, #167 ) ;
#178 = DIRECTION ( 'NONE',  ( 1.000000000000000000, 0.0000000000000000000, 0.0000000000000000000 ) ) ;
#179 = DIRECTION ( 'NONE',  ( -0.0000000000000000000, -0.0000000000000000000, 1.000000000000000000 ) ) ;
#180 = CARTESIAN_POINT ( 'NONE',  ( 0.0000000000000000000, 0.0000000000000000000, -1.174999999999998900 ) ) ;
#181 = CARTESIAN_POINT ( 'NONE',  ( 0.0000000000000000000, 0.0000000000000000000, -228.8649995019273700 ) ) ;
#182 = DIRECTION ( 'NONE',  ( 1.000000000000000000, 0.0000000000000000000, 0.0000000000000000000 ) ) ;
#183 = AXIS2_PLACEMENT_3D ( 'NONE', #180, #179, #178 ) ;
#184 = CIRCLE ( 'NONE', #177, 230.0400000000000500 ) ;
#185 = CARTESIAN_POINT ( 'NONE',  ( 0.0000000000000000000, 0.0000000000000000000, 1.175000000000000000 ) ) ;
#186 = TOROIDAL_SURFACE ( 'NONE', #174, 0.01513780900200007600, 230.0400000000000200 ) ;
#187 = DIRECTION ( 'NONE',  ( 1.000000000000000000, 0.0000000000000000000, 0.0000000000000000000 ) ) ;
#188 = FACE_OUTER_BOUND ( 'NONE', #87, .T. ) ;
#189 = DIRECTION ( 'NONE',  ( 1.000000000000000000, 0.0000000000000000000, 0.0000000000000000000 ) ) ;
#190 = FACE_OUTER_BOUND ( 'NONE', #14, .T. ) ;
#191 = DIRECTION ( 'NONE',  ( -0.0000000000000000000, -0.0000000000000000000, 1.000000000000000000 ) ) ;
#192 = DIRECTION ( 'NONE',  ( 0.0000000000000000000, -0.0000000000000000000, 1.000000000000000000 ) ) ;
#193 = FACE_OUTER_BOUND ( 'NONE', #3, .T. ) ;
#194 = DIRECTION ( 'NONE',  ( -0.0000000000000000000, -0.0000000000000000000, 1.000000000000000000 ) ) ;
#195 = CARTESIAN_POINT ( 'NONE',  ( 0.0000000000000000000, 0.0000000000000000000, -1.174999999999998900 ) ) ;
#196 = FACE_OUTER_BOUND ( 'NONE', #77, .T. ) ;
#197 = PLANE ( 'NONE',  #199 ) ;
#198 = AXIS2_PLACEMENT_3D ( 'NONE', #195, #194, #182 ) ;
#199 = AXIS2_PLACEMENT_3D ( 'NONE', #211, #192, #189 ) ;
#200 = DIRECTION ( 'NONE',  ( -0.7071067811865431300, 0.0000000000000000000, -0.7071067811865519000 ) ) ;
#201 = VECTOR ( 'NONE', #200, 1000.000000000000000 ) ;
#202 = CARTESIAN_POINT ( 'NONE',  ( -12.69999999999999900, 0.0000000000000000000, 0.6913451127407814800 ) ) ;
#203 = CIRCLE ( 'NONE', #183, 12.55857864376269000 ) ;
#204 = CARTESIAN_POINT ( 'NONE',  ( 12.69999999999999900, 0.0000000000000000000, 0.6913451127407814800 ) ) ;
#205 = DIRECTION ( 'NONE',  ( 1.000000000000000000, 0.0000000000000000000, 0.0000000000000000000 ) ) ;
#206 = DIRECTION ( 'NONE',  ( -0.0000000000000000000, -0.0000000000000000000, 1.000000000000000000 ) ) ;
#207 = CONICAL_SURFACE ( 'NONE', #198, 12.55857864376269000, 0.7853981633974482800 ) ;
#208 = DIRECTION ( 'NONE',  ( 1.000000000000000000, 0.0000000000000000000, 0.0000000000000000000 ) ) ;
#209 = AXIS2_PLACEMENT_3D ( 'NONE', #126, #115, #208 ) ;
#210 = CARTESIAN_POINT ( 'NONE',  ( 0.0000000000000000000, 0.0000000000000000000, 0.6913451127407814800 ) ) ;
#211 = CARTESIAN_POINT ( 'NONE',  ( 0.0000000000000000000, 0.0000000000000000000, -1.175000000000000000 ) ) ;
#212 = AXIS2_PLACEMENT_3D ( 'NONE', #210, #206, #205 ) ;
#213 = DIRECTION ( 'NONE',  ( 1.000000000000000000, 0.0000000000000000000, 0.0000000000000000000 ) ) ;
#214 = CARTESIAN_POINT ( 'NONE',  ( -12.69999999999999900, 1.555301434917138400E-015, 0.6913451127407814800 ) ) ;
#215 = CIRCLE ( 'NONE', #158, 12.55857864376269200 ) ;
#216 = DIRECTION ( 'NONE',  ( 0.0000000000000000000, 0.0000000000000000000, -1.000000000000000000 ) ) ;
#217 = DIRECTION ( 'NONE',  ( -1.000000000000000000, 0.0000000000000000000, 0.0000000000000000000 ) ) ;
#218 = DIRECTION ( 'NONE',  ( -1.000000000000000000, 0.0000000000000000000, 0.0000000000000000000 ) ) ;
#219 = DIRECTION ( 'NONE',  ( 0.0000000000000000000, 0.0000000000000000000, -1.000000000000000000 ) ) ;
#220 = AXIS2_PLACEMENT_3D ( 'NONE', #130, #219, #218 ) ;
#221 = FACE_OUTER_BOUND ( 'NONE', #61, .T. ) ;
#222 = CARTESIAN_POINT ( 'NONE',  ( 0.0000000000000000000, 0.0000000000000000000, -1.033578643762689300 ) ) ;
#223 = DIRECTION ( 'NONE',  ( 1.000000000000000000, 0.0000000000000000000, 0.0000000000000000000 ) ) ;
#224 = DIRECTION ( 'NONE',  ( -0.0000000000000000000, -0.0000000000000000000, 1.000000000000000000 ) ) ;
#225 = DATE_AND_TIME ( #228, #230 ) ;
#226 = COORDINATED_UNIVERSAL_TIME_OFFSET ( 5, 0, .BEHIND. ) ;
#227 = DATE_TIME_ROLE ( 'classification_date' ) ;
#228 = CALENDAR_DATE ( 2012, 28, 9 ) ;
#229 = CC_DESIGN_DATE_AND_TIME_ASSIGNMENT ( #225, #227, ( #153 ) ) ;
#230 = LOCAL_TIME ( 12, 15, 59.00000000000000000, #226 ) ;
#231 = UNCERTAINTY_MEASURE_WITH_UNIT (LENGTH_MEASURE( 1.000000000000000100E-005 ), #269, 'distance_accuracy_value', 'NONE');
#232 =( NAMED_UNIT ( * ) SI_UNIT ( $, .STERADIAN. ) SOLID_ANGLE_UNIT ( ) );
#233 = CARTESIAN_POINT ( 'NONE',  ( 12.55857864376269000, 0.0000000000000000000, -1.174999999999998900 ) ) ;
#234 = LOCAL_TIME ( 12, 15, 59.00000000000000000, #235 ) ;
#235 = COORDINATED_UNIVERSAL_TIME_OFFSET ( 5, 0, .BEHIND. ) ;
#236 = CC_DESIGN_PERSON_AND_ORGANIZATION_ASSIGNMENT ( #238, #237, ( #250 ) ) ;
#237 = PERSON_AND_ORGANIZATION_ROLE ( 'creator' ) ;
#238 = PERSON_AND_ORGANIZATION ( #284, #283 ) ;
#239 = CC_DESIGN_APPROVAL ( #247, ( #250 ) ) ;
#240 = APPROVAL_DATE_TIME ( #241, #247 ) ;
#241 = DATE_AND_TIME ( #242, #243 ) ;
#242 = CALENDAR_DATE ( 2012, 28, 9 ) ;
#243 = LOCAL_TIME ( 12, 15, 59.00000000000000000, #244 ) ;
#244 = COORDINATED_UNIVERSAL_TIME_OFFSET ( 5, 0, .BEHIND. ) ;
#245 = APPROVAL_PERSON_ORGANIZATION ( #249, #247, #246 ) ;
#246 = APPROVAL_ROLE ( '' ) ;
#247 = APPROVAL ( #248, 'UNSPECIFIED' ) ;
#248 = APPROVAL_STATUS ( 'not_yet_approved' ) ;
#249 = PERSON_AND_ORGANIZATION ( #284, #283 ) ;
#250 = PRODUCT_DEFINITION ( 'UNKNOWN', '', #69, #251 ) ;
#251 = DESIGN_CONTEXT ( 'detailed design', #253, 'design' ) ;
#252 = APPLICATION_PROTOCOL_DEFINITION ( 'international standard', 'config_control_design', 1994, #253 ) ;
#253 = APPLICATION_CONTEXT ( 'configuration controlled 3d designs of mechanical parts and assemblies' ) ;
#254 = CC_DESIGN_PERSON_AND_ORGANIZATION_ASSIGNMENT ( #282, #281, ( #285 ) ) ;
#255 = CARTESIAN_POINT ( 'NONE',  ( 0.0000000000000000000, 0.0000000000000000000, -1.174999999999998900 ) ) ;
#256 = DIRECTION ( 'NONE',  ( 1.000000000000000000, 0.0000000000000000000, 0.0000000000000000000 ) ) ;
#257 = DIRECTION ( 'NONE',  ( 0.0000000000000000000, 0.0000000000000000000, 1.000000000000000000 ) ) ;
#258 = CARTESIAN_POINT ( 'NONE',  ( 0.0000000000000000000, 0.0000000000000000000, 0.0000000000000000000 ) ) ;
#259 = ADVANCED_BREP_SHAPE_REPRESENTATION ( '25002-E0W', ( #25, #267 ), #260 ) ;
#260 =( GEOMETRIC_REPRESENTATION_CONTEXT ( 3 ) GLOBAL_UNCERTAINTY_ASSIGNED_CONTEXT ( ( #231 ) ) GLOBAL_UNIT_ASSIGNED_CONTEXT ( ( #269, #268, #232 ) ) REPRESENTATION_CONTEXT ( 'NONE', 'WORKASPACE' ) );
#261 = LINE ( 'NONE', #233, #266 ) ;
#262 = APPLICATION_CONTEXT ( 'configuration controlled 3d designs of mechanical parts and assemblies' ) ;
#263 = APPLICATION_PROTOCOL_DEFINITION ( 'international standard', 'config_control_design', 1994, #262 ) ;
#264 = CIRCLE ( 'NONE', #275, 12.55857864376269000 ) ;
#265 = DIRECTION ( 'NONE',  ( 0.7071067811865474600, 0.0000000000000000000, 0.7071067811865475700 ) ) ;
#266 = VECTOR ( 'NONE', #265, 1000.000000000000000 ) ;
#267 = AXIS2_PLACEMENT_3D ( 'NONE', #258, #257, #256 ) ;
#268 =( NAMED_UNIT ( * ) PLANE_ANGLE_UNIT ( ) SI_UNIT ( $, .RADIAN. ) );
#269 =( LENGTH_UNIT ( ) NAMED_UNIT ( * ) SI_UNIT ( .MILLI., .METRE. ) );
#270 = DIRECTION ( 'NONE',  ( -0.0000000000000000000, -0.0000000000000000000, 1.000000000000000000 ) ) ;
#271 = VECTOR ( 'NONE', #270, 1000.000000000000000 ) ;
#272 = CARTESIAN_POINT ( 'NONE',  ( 12.69999999999999900, 0.0000000000000000000, 22.30948260650616900 ) ) ;
#273 = DIRECTION ( 'NONE',  ( -0.0000000000000000000, -0.0000000000000000000, 1.000000000000000000 ) ) ;
#274 = DIRECTION ( 'NONE',  ( 1.000000000000000000, 0.0000000000000000000, 0.0000000000000000000 ) ) ;
#275 = AXIS2_PLACEMENT_3D ( 'NONE', #255, #273, #274 ) ;
#276 = LINE ( 'NONE', #272, #271 ) ;
#277 = DIRECTION ( 'NONE',  ( -0.7071067811865474600, 8.659560562354931600E-017, 0.7071067811865475700 ) ) ;
#278 = VECTOR ( 'NONE', #277, 1000.000000000000000 ) ;
#279 = CARTESIAN_POINT ( 'NONE',  ( -12.55857864376269000, 1.537982313792428700E-015, -1.174999999999998900 ) ) ;
#280 = LINE ( 'NONE', #279, #278 ) ;
#281 = PERSON_AND_ORGANIZATION_ROLE ( 'design_owner' ) ;
#282 = PERSON_AND_ORGANIZATION ( #284, #283 ) ;
#283 = ORGANIZATION ( 'UNSPECIFIED', 'UNSPECIFIED', '' ) ;
#284 = PERSON ( 'UNSPECIFIED', 'UNSPECIFIED', 'UNSPECIFIED', ('UNSPECIFIED'), ('UNSPECIFIED'), ('UNSPECIFIED') ) ;
#285 = PRODUCT ( '25002-E0W', '25002-E0W', '', ( #286 ) ) ;
#286 = MECHANICAL_CONTEXT ( 'NONE', #262, 'mechanical' ) ;
#287 = CC_DESIGN_SECURITY_CLASSIFICATION ( #153, ( #69 ) ) ;
#288 = CC_DESIGN_APPROVAL ( #296, ( #153 ) ) ;
#289 = APPROVAL_DATE_TIME ( #290, #296 ) ;
#290 = DATE_AND_TIME ( #298, #299 ) ;
#291 = APPROVAL_STATUS ( 'not_yet_approved' ) ;
#292 = SHAPE_DEFINITION_REPRESENTATION ( #293, #259 ) ;
#293 = PRODUCT_DEFINITION_SHAPE ( 'NONE', 'NONE',  #250 ) ;
#294 = PRODUCT_RELATED_PRODUCT_CATEGORY ( 'detail', '', ( #285 ) ) ;
#295 = APPROVAL_ROLE ( '' ) ;
#296 = APPROVAL ( #291, 'UNSPECIFIED' ) ;
#297 = PERSON_AND_ORGANIZATION ( #284, #283 ) ;
#298 = CALENDAR_DATE ( 2012, 28, 9 ) ;
#299 = LOCAL_TIME ( 12, 15, 59.00000000000000000, #300 ) ;
#300 = COORDINATED_UNIVERSAL_TIME_OFFSET ( 5, 0, .BEHIND. ) ;
#301 = APPROVAL_PERSON_ORGANIZATION ( #297, #296, #295 ) ;
ENDSEC;
END-ISO-10303-21;
