ISO-10303-21;
HEADER;
FILE_DESCRIPTION (( 'STEP AP203' ),
    '1' );
FILE_NAME ('TTN162578-E0W.STEP',
    '2019-10-24T13:58:03',
    ( '' ),
    ( '' ),
    'SwSTEP 2.0',
    'SolidWorks 2018',
    '' );
FILE_SCHEMA (( 'CONFIG_CONTROL_DESIGN' ));
ENDSEC;

DATA;
#1 = ORIENTED_EDGE ( 'NONE', *, *, #234, .T. ) ;
#2 = LOCAL_TIME ( 9, 58, 3.000000000000000000, #280 ) ;
#3 = AXIS2_PLACEMENT_3D ( 'NONE', #281, #117, #257 ) ;
#4 = DIRECTION ( 'NONE',  ( 8.659560562354924230E-17, -0.7071067811865466846, -0.7071067811865483499 ) ) ;
#5 = DIRECTION ( 'NONE',  ( -0.0000000000000000000, 1.224646799147352714E-16, -1.000000000000000000 ) ) ;
#6 = EDGE_CURVE ( 'NONE', #200, #289, #172, .T. ) ;
#7 = ORIENTED_EDGE ( 'NONE', *, *, #272, .F. ) ;
#8 = APPROVAL_PERSON_ORGANIZATION ( #52, #119, #298 ) ;
#9 = DIRECTION ( 'NONE',  ( 0.0000000000000000000, 1.000000000000000000, 1.219727444046192488E-16 ) ) ;
#10 = CARTESIAN_POINT ( 'NONE',  ( 0.0000000000000000000, 7.498798913309281197E-33, -6.123233995736763571E-17 ) ) ;
#11 = CARTESIAN_POINT ( 'NONE',  ( 0.0000000000000000000, 1.000000000000000000, 1.224646799147352714E-16 ) ) ;
#12 =( NAMED_UNIT ( * ) PLANE_ANGLE_UNIT ( ) SI_UNIT ( $, .RADIAN. ) );
#13 = EDGE_LOOP ( 'NONE', ( #167, #213, #255, #184 ) ) ;
#14 = DATE_TIME_ROLE ( 'classification_date' ) ;
#15 = CC_DESIGN_PERSON_AND_ORGANIZATION_ASSIGNMENT ( #106, #216, ( #299 ) ) ;
#16 = PERSON_AND_ORGANIZATION ( #83, #271 ) ;
#17 = ADVANCED_FACE ( 'NONE', ( #43 ), #104, .T. ) ;
#18 = AXIS2_PLACEMENT_3D ( 'NONE', #229, #103, #290 ) ;
#19 = VERTEX_POINT ( 'NONE', #275 ) ;
#20 = CALENDAR_DATE ( 2019, 24, 10 ) ;
#21 = ADVANCED_BREP_SHAPE_REPRESENTATION ( 'TTN162578-E0W', ( #127, #75 ), #166 ) ;
#22 = DIRECTION ( 'NONE',  ( 0.0000000000000000000, 1.000000000000000000, 1.219727444046192488E-16 ) ) ;
#23 = CARTESIAN_POINT ( 'NONE',  ( 0.0000000000000000000, 1.000000000000000000, 0.7187529790252281670 ) ) ;
#24 = LINE ( 'NONE', #23, #263 ) ;
#25 = SPHERICAL_SURFACE ( 'NONE', #204, 2.067000000000000171 ) ;
#26 = CARTESIAN_POINT ( 'NONE',  ( 1.224646799147353207E-16, -1.000000000000000000, 0.7187529790252279449 ) ) ;
#27 = DIRECTION ( 'NONE',  ( -0.0000000000000000000, 1.224646799147352714E-16, -1.000000000000000000 ) ) ;
#28 = DIRECTION ( 'NONE',  ( -0.0000000000000000000, 1.224646799147352714E-16, -1.000000000000000000 ) ) ;
#29 = DIRECTION ( 'NONE',  ( 1.000000000000000000, 0.0000000000000000000, 0.0000000000000000000 ) ) ;
#30 = CIRCLE ( 'NONE', #199, 1.000000000000000000 ) ;
#31 = DIRECTION ( 'NONE',  ( 0.0000000000000000000, 1.000000000000000000, 1.084202172485504434E-16 ) ) ;
#32 = AXIS2_PLACEMENT_3D ( 'NONE', #249, #27, #98 ) ;
#33 = DIRECTION ( 'NONE',  ( 0.0000000000000000000, -1.224646799147352714E-16, 1.000000000000000000 ) ) ;
#34 = MECHANICAL_CONTEXT ( 'NONE', #147, 'mechanical' ) ;
#35 = CARTESIAN_POINT ( 'NONE',  ( 0.0000000000000000000, -8.802185351408698998E-17, 0.7187529790252280559 ) ) ;
#36 = ORIENTED_EDGE ( 'NONE', *, *, #240, .F. ) ;
#37 = ORIENTED_EDGE ( 'NONE', *, *, #175, .F. ) ;
#38 = PERSON_AND_ORGANIZATION_ROLE ( 'design_supplier' ) ;
#39 = CALENDAR_DATE ( 2019, 24, 10 ) ;
#40 = VERTEX_POINT ( 'NONE', #120 ) ;
#41 = CC_DESIGN_DATE_AND_TIME_ASSIGNMENT ( #58, #296, ( #174 ) ) ;
#42 = CIRCLE ( 'NONE', #301, 1.000000000000000000 ) ;
#43 = FACE_OUTER_BOUND ( 'NONE', #239, .T. ) ;
#44 = ORIENTED_EDGE ( 'NONE', *, *, #99, .T. ) ;
#45 = DATE_AND_TIME ( #107, #291 ) ;
#46 = AXIS2_PLACEMENT_3D ( 'NONE', #10, #84, #60 ) ;
#47 = CARTESIAN_POINT ( 'NONE',  ( 0.0000000000000000000, 0.0000000000000000000, -1.067000000000000171 ) ) ;
#48 = ORIENTED_EDGE ( 'NONE', *, *, #115, .F. ) ;
#49 = DIRECTION ( 'NONE',  ( 0.0000000000000000000, 1.000000000000000000, 1.141265444721583264E-16 ) ) ;
#50 = PRODUCT_DEFINITION_FORMATION_WITH_SPECIFIED_SOURCE ( 'ANY', '', #157, .NOT_KNOWN. ) ;
#51 = COORDINATED_UNIVERSAL_TIME_OFFSET ( 5, 0, .BEHIND. ) ;
#52 = PERSON_AND_ORGANIZATION ( #83, #271 ) ;
#53 = CARTESIAN_POINT ( 'NONE',  ( 0.0000000000000000000, -8.802185351408698998E-17, 0.7187529790252280559 ) ) ;
#54 = APPROVAL_PERSON_ORGANIZATION ( #114, #169, #237 ) ;
#55 = FACE_OUTER_BOUND ( 'NONE', #288, .T. ) ;
#56 = DIRECTION ( 'NONE',  ( 0.0000000000000000000, -1.000000000000000000, -1.224646799147352714E-16 ) ) ;
#57 = ORIENTED_EDGE ( 'NONE', *, *, #115, .T. ) ;
#58 = DATE_AND_TIME ( #20, #79 ) ;
#59 = DIRECTION ( 'NONE',  ( -0.0000000000000000000, 1.224646799147352714E-16, -1.000000000000000000 ) ) ;
#60 = DIRECTION ( 'NONE',  ( 0.0000000000000000000, 1.000000000000000000, 1.224646799147352714E-16 ) ) ;
#61 = APPLICATION_PROTOCOL_DEFINITION ( 'international standard', 'config_control_design', 1994, #147 ) ;
#62 = APPROVAL ( #89, 'UNSPECIFIED' ) ;
#63 = ORIENTED_EDGE ( 'NONE', *, *, #6, .F. ) ;
#64 = AXIS2_PLACEMENT_3D ( 'NONE', #230, #211, #101 ) ;
#65 = CARTESIAN_POINT ( 'NONE',  ( 0.0000000000000000000, 1.000000000000000000, 0.7187529790252281670 ) ) ;
#66 = COORDINATED_UNIVERSAL_TIME_OFFSET ( 5, 0, .BEHIND. ) ;
#67 = EDGE_LOOP ( 'NONE', ( #202, #44, #57, #122 ) ) ;
#68 = ADVANCED_FACE ( 'NONE', ( #243 ), #219, .T. ) ;
#69 = FACE_OUTER_BOUND ( 'NONE', #67, .T. ) ;
#70 = AXIS2_PLACEMENT_3D ( 'NONE', #87, #258, #124 ) ;
#71 = VECTOR ( 'NONE', #59, 1000.000000000000000 ) ;
#72 = DATE_AND_TIME ( #185, #178 ) ;
#73 = FACE_OUTER_BOUND ( 'NONE', #112, .T. ) ;
#74 = DIRECTION ( 'NONE',  ( 0.0000000000000000000, -1.224646799147352714E-16, 1.000000000000000000 ) ) ;
#75 = AXIS2_PLACEMENT_3D ( 'NONE', #165, #100, #29 ) ;
#76 = CIRCLE ( 'NONE', #129, 1.000000000000000000 ) ;
#77 = DIRECTION ( 'NONE',  ( 1.000000000000000000, 1.224646799147353207E-16, 1.499759782661857060E-32 ) ) ;
#78 = DIRECTION ( 'NONE',  ( 0.0000000000000000000, 1.000000000000000000, 1.141265444721583264E-16 ) ) ;
#79 = LOCAL_TIME ( 9, 58, 3.000000000000000000, #154 ) ;
#80 = DIRECTION ( 'NONE',  ( -0.0000000000000000000, 1.224646799147352714E-16, -1.000000000000000000 ) ) ;
#81 = CC_DESIGN_DATE_AND_TIME_ASSIGNMENT ( #205, #14, ( #299 ) ) ;
#82 = CIRCLE ( 'NONE', #46, 0.9499999999999992895 ) ;
#83 = PERSON ( 'UNSPECIFIED', 'UNSPECIFIED', 'UNSPECIFIED', ('UNSPECIFIED'), ('UNSPECIFIED'), ('UNSPECIFIED') ) ;
#84 = DIRECTION ( 'NONE',  ( -0.0000000000000000000, 1.224646799147352714E-16, -1.000000000000000000 ) ) ;
#85 = EDGE_CURVE ( 'NONE', #40, #289, #118, .T. ) ;
#86 = CARTESIAN_POINT ( 'NONE',  ( 0.0000000000000000000, -6.123233995736827203E-18, 0.05000000000000051625 ) ) ;
#87 = CARTESIAN_POINT ( 'NONE',  ( 0.0000000000000000000, 0.0000000000000000000, -1.067000000000000171 ) ) ;
#88 = EDGE_CURVE ( 'NONE', #289, #19, #116, .T. ) ;
#89 = APPROVAL_STATUS ( 'not_yet_approved' ) ;
#90 = FACE_OUTER_BOUND ( 'NONE', #13, .T. ) ;
#91 = ORIENTED_EDGE ( 'NONE', *, *, #156, .T. ) ;
#92 = VECTOR ( 'NONE', #286, 1000.000000000000000 ) ;
#93 = VERTEX_POINT ( 'NONE', #138 ) ;
#94 = APPROVAL_DATE_TIME ( #273, #62 ) ;
#95 = AXIS2_PLACEMENT_3D ( 'NONE', #35, #233, #261 ) ;
#96 = ADVANCED_FACE ( 'NONE', ( #55 ), #265, .T. ) ;
#97 = DIRECTION ( 'NONE',  ( 1.000000000000000000, 0.0000000000000000000, -0.0000000000000000000 ) ) ;
#98 = DIRECTION ( 'NONE',  ( 0.0000000000000000000, 1.000000000000000000, 1.224646799147352714E-16 ) ) ;
#99 = EDGE_CURVE ( 'NONE', #289, #40, #159, .T. ) ;
#100 = DIRECTION ( 'NONE',  ( 0.0000000000000000000, 0.0000000000000000000, 1.000000000000000000 ) ) ;
#101 = DIRECTION ( 'NONE',  ( 0.0000000000000000000, 1.000000000000000000, 1.224646799147352714E-16 ) ) ;
#102 = CC_DESIGN_PERSON_AND_ORGANIZATION_ASSIGNMENT ( #16, #131, ( #174 ) ) ;
#103 = DIRECTION ( 'NONE',  ( 1.000000000000000000, 0.0000000000000000000, -0.0000000000000000000 ) ) ;
#104 = CYLINDRICAL_SURFACE ( 'NONE', #170, 1.000000000000000000 ) ;
#105 = CC_DESIGN_PERSON_AND_ORGANIZATION_ASSIGNMENT ( #242, #190, ( #157 ) ) ;
#106 = PERSON_AND_ORGANIZATION ( #83, #271 ) ;
#107 = CALENDAR_DATE ( 2019, 24, 10 ) ;
#108 = PERSON_AND_ORGANIZATION_ROLE ( 'creator' ) ;
#109 = ADVANCED_FACE ( 'NONE', ( #294 ), #25, .T. ) ;
#110 = EDGE_CURVE ( 'NONE', #283, #168, #252, .T. ) ;
#111 = VECTOR ( 'NONE', #80, 1000.000000000000000 ) ;
#112 = EDGE_LOOP ( 'NONE', ( #63, #132, #208 ) ) ;
#113 = ORIENTED_EDGE ( 'NONE', *, *, #267, .F. ) ;
#114 = PERSON_AND_ORGANIZATION ( #83, #271 ) ;
#115 = EDGE_CURVE ( 'NONE', #40, #247, #24, .T. ) ;
#116 = LINE ( 'NONE', #26, #150 ) ;
#117 = DIRECTION ( 'NONE',  ( -0.0000000000000000000, 1.224646799147352714E-16, -1.000000000000000000 ) ) ;
#118 = CIRCLE ( 'NONE', #245, 0.9500000000000002887 ) ;
#119 = APPROVAL ( #293, 'UNSPECIFIED' ) ;
#120 = CARTESIAN_POINT ( 'NONE',  ( 0.0000000000000000000, 0.9500000000000001776, 0.7687529790252279893 ) ) ;
#121 = CARTESIAN_POINT ( 'NONE',  ( 1.194030629168668828E-16, 0.9499999999999992895, 5.510910596163077846E-17 ) ) ;
#122 = ORIENTED_EDGE ( 'NONE', *, *, #285, .F. ) ;
#123 = PERSON_AND_ORGANIZATION ( #83, #271 ) ;
#124 = DIRECTION ( 'NONE',  ( 0.0000000000000000000, 0.0000000000000000000, 1.000000000000000000 ) ) ;
#125 = CONICAL_SURFACE ( 'NONE', #217, 0.9499999999999992895, 0.7853981633974503884 ) ;
#126 = ORIENTED_EDGE ( 'NONE', *, *, #228, .T. ) ;
#127 = MANIFOLD_SOLID_BREP ( 'TTN162255-1-solid1', #215 ) ;
#128 = ORIENTED_EDGE ( 'NONE', *, *, #234, .F. ) ;
#129 = AXIS2_PLACEMENT_3D ( 'NONE', #86, #33, #9 ) ;
#130 =( LENGTH_UNIT ( ) NAMED_UNIT ( * ) SI_UNIT ( .MILLI., .METRE. ) );
#131 = PERSON_AND_ORGANIZATION_ROLE ( 'creator' ) ;
#132 = ORIENTED_EDGE ( 'NONE', *, *, #240, .T. ) ;
#133 = EDGE_LOOP ( 'NONE', ( #225, #236, #176, #48 ) ) ;
#134 = APPLICATION_PROTOCOL_DEFINITION ( 'international standard', 'config_control_design', 1994, #264 ) ;
#135 = FACE_OUTER_BOUND ( 'NONE', #300, .T. ) ;
#136 = CIRCLE ( 'NONE', #70, 2.067000000000000171 ) ;
#137 = DIRECTION ( 'NONE',  ( 0.0000000000000000000, 1.000000000000000000, 1.224646799147352714E-16 ) ) ;
#138 = CARTESIAN_POINT ( 'NONE',  ( 0.0000000000000000000, 1.000000000000000000, 0.05000000000000064115 ) ) ;
#139 = DIRECTION ( 'NONE',  ( 0.0000000000000000000, 1.000000000000000000, 1.049058705839868669E-16 ) ) ;
#140 = LINE ( 'NONE', #259, #71 ) ;
#141 = DIRECTION ( 'NONE',  ( 0.0000000000000000000, 1.000000000000000000, 1.224646799147352714E-16 ) ) ;
#142 = CC_DESIGN_APPROVAL ( #169, ( #174 ) ) ;
#143 = ORIENTED_EDGE ( 'NONE', *, *, #163, .F. ) ;
#144 = CARTESIAN_POINT ( 'NONE',  ( 0.0000000000000000000, -1.265672466918788894E-16, 1.000000000000000000 ) ) ;
#145 = DIRECTION ( 'NONE',  ( -0.0000000000000000000, 1.224646799147352714E-16, -1.000000000000000000 ) ) ;
#146 = CARTESIAN_POINT ( 'NONE',  ( 0.0000000000000000000, -8.802185351408698998E-17, 0.7187529790252280559 ) ) ;
#147 = APPLICATION_CONTEXT ( 'configuration controlled 3d designs of mechanical parts and assemblies' ) ;
#148 =( NAMED_UNIT ( * ) SI_UNIT ( $, .STERADIAN. ) SOLID_ANGLE_UNIT ( ) );
#149 = CIRCLE ( 'NONE', #269, 1.000000000000000000 ) ;
#150 = VECTOR ( 'NONE', #4, 1000.000000000000000 ) ;
#151 = APPROVAL_DATE_TIME ( #45, #119 ) ;
#152 = UNCERTAINTY_MEASURE_WITH_UNIT (LENGTH_MEASURE( 1.000000000000000082E-05 ), #130, 'distance_accuracy_value', 'NONE');
#153 = ORIENTED_EDGE ( 'NONE', *, *, #228, .F. ) ;
#154 = COORDINATED_UNIVERSAL_TIME_OFFSET ( 5, 0, .BEHIND. ) ;
#155 = PERSON_AND_ORGANIZATION ( #83, #271 ) ;
#156 = EDGE_CURVE ( 'NONE', #247, #19, #149, .T. ) ;
#157 = PRODUCT ( 'TTN162578-E0W', 'TTN162578-E0W', '', ( #34 ) ) ;
#158 = CARTESIAN_POINT ( 'NONE',  ( 0.0000000000000000000, -6.123233995736827203E-18, 0.05000000000000051625 ) ) ;
#159 = CIRCLE ( 'NONE', #188, 0.9500000000000002887 ) ;
#160 = CARTESIAN_POINT ( 'NONE',  ( 0.0000000000000000000, -9.414508750982373013E-17, 0.7687529790252278783 ) ) ;
#161 = PERSON_AND_ORGANIZATION ( #83, #271 ) ;
#162 = DIRECTION ( 'NONE',  ( 0.0000000000000000000, -0.7071067811865490160, 0.7071067811865460184 ) ) ;
#163 = EDGE_CURVE ( 'NONE', #283, #179, #268, .T. ) ;
#164 = DIRECTION ( 'NONE',  ( 0.0000000000000000000, -1.224646799147352714E-16, 1.000000000000000000 ) ) ;
#165 = CARTESIAN_POINT ( 'NONE',  ( 0.0000000000000000000, 0.0000000000000000000, 0.0000000000000000000 ) ) ;
#166 =( GEOMETRIC_REPRESENTATION_CONTEXT ( 3 ) GLOBAL_UNCERTAINTY_ASSIGNED_CONTEXT ( ( #152 ) ) GLOBAL_UNIT_ASSIGNED_CONTEXT ( ( #130, #12, #148 ) ) REPRESENTATION_CONTEXT ( 'NONE', 'WORKASPACE' ) );
#167 = ORIENTED_EDGE ( 'NONE', *, *, #254, .F. ) ;
#168 = VERTEX_POINT ( 'NONE', #183 ) ;
#169 = APPROVAL ( #235, 'UNSPECIFIED' ) ;
#170 = AXIS2_PLACEMENT_3D ( 'NONE', #198, #241, #137 ) ;
#171 = LINE ( 'NONE', #11, #111 ) ;
#172 = CIRCLE ( 'NONE', #277, 2.067000000000000171 ) ;
#173 = ORIENTED_EDGE ( 'NONE', *, *, #254, .T. ) ;
#174 = PRODUCT_DEFINITION ( 'UNKNOWN', '', #50, #210 ) ;
#175 = EDGE_CURVE ( 'NONE', #168, #93, #30, .T. ) ;
#176 = ORIENTED_EDGE ( 'NONE', *, *, #156, .F. ) ;
#177 = ORIENTED_EDGE ( 'NONE', *, *, #85, .F. ) ;
#178 = LOCAL_TIME ( 9, 58, 3.000000000000000000, #66 ) ;
#179 = VERTEX_POINT ( 'NONE', #121 ) ;
#180 = ORIENTED_EDGE ( 'NONE', *, *, #175, .T. ) ;
#181 = DIRECTION ( 'NONE',  ( 0.0000000000000000000, -1.000000000000000000, -1.224646799147352714E-16 ) ) ;
#182 = DIRECTION ( 'NONE',  ( 0.0000000000000000000, 1.000000000000000000, 1.084202172485504434E-16 ) ) ;
#183 = CARTESIAN_POINT ( 'NONE',  ( 1.224646799147353207E-16, -1.000000000000000000, 0.05000000000000039829 ) ) ;
#184 = ORIENTED_EDGE ( 'NONE', *, *, #267, .T. ) ;
#185 = CALENDAR_DATE ( 2019, 24, 10 ) ;
#186 = DIRECTION ( 'NONE',  ( 0.0000000000000000000, -1.224646799147352714E-16, 1.000000000000000000 ) ) ;
#187 = AXIS2_PLACEMENT_3D ( 'NONE', #276, #74, #56 ) ;
#188 = AXIS2_PLACEMENT_3D ( 'NONE', #160, #223, #49 ) ;
#189 = CARTESIAN_POINT ( 'NONE',  ( 1.163414459189984696E-16, 0.9499999999999992895, 5.510910596163077846E-17 ) ) ;
#190 = PERSON_AND_ORGANIZATION_ROLE ( 'design_owner' ) ;
#191 = CC_DESIGN_PERSON_AND_ORGANIZATION_ASSIGNMENT ( #161, #108, ( #50 ) ) ;
#192 = VECTOR ( 'NONE', #162, 1000.000000000000114 ) ;
#193 = APPROVAL_ROLE ( '' ) ;
#194 = ADVANCED_FACE ( 'NONE', ( #90 ), #260, .T. ) ;
#195 = SECURITY_CLASSIFICATION_LEVEL ( 'unclassified' ) ;
#196 = LINE ( 'NONE', #189, #92 ) ;
#197 = APPROVAL_PERSON_ORGANIZATION ( #155, #62, #193 ) ;
#198 = CARTESIAN_POINT ( 'NONE',  ( 0.0000000000000000000, 0.0000000000000000000, 0.0000000000000000000 ) ) ;
#199 = AXIS2_PLACEMENT_3D ( 'NONE', #158, #164, #22 ) ;
#200 = VERTEX_POINT ( 'NONE', #144 ) ;
#201 = DIRECTION ( 'NONE',  ( -1.224646799147353207E-16, 1.000000000000000000, 0.0000000000000000000 ) ) ;
#202 = ORIENTED_EDGE ( 'NONE', *, *, #88, .F. ) ;
#203 = CARTESIAN_POINT ( 'NONE',  ( 0.0000000000000000000, 7.498798913309281197E-33, -6.123233995736763571E-17 ) ) ;
#204 = AXIS2_PLACEMENT_3D ( 'NONE', #224, #97, #139 ) ;
#205 = DATE_AND_TIME ( #297, #2 ) ;
#206 = CARTESIAN_POINT ( 'NONE',  ( 0.0000000000000000000, 7.498798913309281197E-33, -6.123233995736763571E-17 ) ) ;
#207 = ADVANCED_FACE ( 'NONE', ( #287 ), #125, .T. ) ;
#208 = ORIENTED_EDGE ( 'NONE', *, *, #99, .F. ) ;
#209 = CARTESIAN_POINT ( 'NONE',  ( 0.0000000000000000000, -0.9499999999999992895, -1.775737858763660437E-16 ) ) ;
#210 = DESIGN_CONTEXT ( 'detailed design', #264, 'design' ) ;
#211 = DIRECTION ( 'NONE',  ( -0.0000000000000000000, 1.224646799147352714E-16, -1.000000000000000000 ) ) ;
#212 = CC_DESIGN_APPROVAL ( #62, ( #299 ) ) ;
#213 = ORIENTED_EDGE ( 'NONE', *, *, #285, .T. ) ;
#214 = ORIENTED_EDGE ( 'NONE', *, *, #163, .T. ) ;
#215 = CLOSED_SHELL ( 'NONE', ( #207, #109, #68, #17, #295, #194, #248, #226, #96 ) ) ;
#216 = PERSON_AND_ORGANIZATION_ROLE ( 'classification_officer' ) ;
#217 = AXIS2_PLACEMENT_3D ( 'NONE', #203, #186, #181 ) ;
#218 = SPHERICAL_SURFACE ( 'NONE', #18, 2.067000000000000171 ) ;
#219 = CONICAL_SURFACE ( 'NONE', #3, 1.000000000000000000, 0.7853981633974472798 ) ;
#220 = APPROVAL_DATE_TIME ( #72, #169 ) ;
#221 = CC_DESIGN_APPROVAL ( #119, ( #50 ) ) ;
#222 = CARTESIAN_POINT ( 'NONE',  ( 0.0000000000000000000, -9.414508750982373013E-17, 0.7687529790252278783 ) ) ;
#223 = DIRECTION ( 'NONE',  ( -0.0000000000000000000, 1.224646799147352714E-16, -1.000000000000000000 ) ) ;
#224 = CARTESIAN_POINT ( 'NONE',  ( 0.0000000000000000000, 0.0000000000000000000, -1.067000000000000171 ) ) ;
#225 = ORIENTED_EDGE ( 'NONE', *, *, #85, .T. ) ;
#226 = ADVANCED_FACE ( 'NONE', ( #73 ), #218, .T. ) ;
#227 = ORIENTED_EDGE ( 'NONE', *, *, #6, .T. ) ;
#228 = EDGE_CURVE ( 'NONE', #179, #93, #196, .T. ) ;
#229 = CARTESIAN_POINT ( 'NONE',  ( 0.0000000000000000000, 0.0000000000000000000, -1.067000000000000171 ) ) ;
#230 = CARTESIAN_POINT ( 'NONE',  ( 0.0000000000000000000, 7.498798913309281197E-33, -6.123233995736763571E-17 ) ) ;
#231 = ORIENTED_EDGE ( 'NONE', *, *, #110, .T. ) ;
#232 = PRODUCT_DEFINITION_SHAPE ( 'NONE', 'NONE',  #174 ) ;
#233 = DIRECTION ( 'NONE',  ( -0.0000000000000000000, 1.224646799147352714E-16, -1.000000000000000000 ) ) ;
#234 = EDGE_CURVE ( 'NONE', #179, #283, #82, .T. ) ;
#235 = APPROVAL_STATUS ( 'not_yet_approved' ) ;
#236 = ORIENTED_EDGE ( 'NONE', *, *, #88, .T. ) ;
#237 = APPROVAL_ROLE ( '' ) ;
#238 = SHAPE_DEFINITION_REPRESENTATION ( #232, #21 ) ;
#239 = EDGE_LOOP ( 'NONE', ( #91, #173, #180, #7 ) ) ;
#240 = EDGE_CURVE ( 'NONE', #200, #40, #136, .T. ) ;
#241 = DIRECTION ( 'NONE',  ( -0.0000000000000000000, 1.224646799147352714E-16, -1.000000000000000000 ) ) ;
#242 = PERSON_AND_ORGANIZATION ( #83, #271 ) ;
#243 = FACE_OUTER_BOUND ( 'NONE', #133, .T. ) ;
#244 = EDGE_LOOP ( 'NONE', ( #128, #126, #37, #274 ) ) ;
#245 = AXIS2_PLACEMENT_3D ( 'NONE', #222, #28, #78 ) ;
#246 = CONICAL_SURFACE ( 'NONE', #95, 1.000000000000000000, 0.7853981633974472798 ) ;
#247 = VERTEX_POINT ( 'NONE', #65 ) ;
#248 = ADVANCED_FACE ( 'NONE', ( #69 ), #246, .T. ) ;
#249 = CARTESIAN_POINT ( 'NONE',  ( 0.0000000000000000000, 0.0000000000000000000, 0.0000000000000000000 ) ) ;
#250 = DIRECTION ( 'NONE',  ( 0.0000000000000000000, 0.7071067811865469066, -0.7071067811865482389 ) ) ;
#251 = CC_DESIGN_SECURITY_CLASSIFICATION ( #299, ( #50 ) ) ;
#252 = LINE ( 'NONE', #253, #192 ) ;
#253 = CARTESIAN_POINT ( 'NONE',  ( 0.0000000000000000000, -0.9499999999999992895, -1.775737858763660437E-16 ) ) ;
#254 = EDGE_CURVE ( 'NONE', #19, #168, #140, .T. ) ;
#255 = ORIENTED_EDGE ( 'NONE', *, *, #272, .T. ) ;
#256 = LOCAL_TIME ( 9, 58, 3.000000000000000000, #266 ) ;
#257 = DIRECTION ( 'NONE',  ( 0.0000000000000000000, 1.000000000000000000, 1.084202172485504434E-16 ) ) ;
#258 = DIRECTION ( 'NONE',  ( -1.000000000000000000, 0.0000000000000000000, 0.0000000000000000000 ) ) ;
#259 = CARTESIAN_POINT ( 'NONE',  ( 1.224646799147353207E-16, -1.000000000000000000, -1.224646799147352714E-16 ) ) ;
#260 = CYLINDRICAL_SURFACE ( 'NONE', #32, 1.000000000000000000 ) ;
#261 = DIRECTION ( 'NONE',  ( 0.0000000000000000000, 1.000000000000000000, 1.084202172485504434E-16 ) ) ;
#262 = CC_DESIGN_PERSON_AND_ORGANIZATION_ASSIGNMENT ( #123, #38, ( #50 ) ) ;
#263 = VECTOR ( 'NONE', #250, 999.9999999999998863 ) ;
#264 = APPLICATION_CONTEXT ( 'configuration controlled 3d designs of mechanical parts and assemblies' ) ;
#265 = CONICAL_SURFACE ( 'NONE', #187, 0.9499999999999992895, 0.7853981633974503884 ) ;
#266 = COORDINATED_UNIVERSAL_TIME_OFFSET ( 5, 0, .BEHIND. ) ;
#267 = EDGE_CURVE ( 'NONE', #93, #168, #76, .T. ) ;
#268 = CIRCLE ( 'NONE', #292, 0.9499999999999992895 ) ;
#269 = AXIS2_PLACEMENT_3D ( 'NONE', #53, #5, #182 ) ;
#270 = PRODUCT_RELATED_PRODUCT_CATEGORY ( 'detail', '', ( #157 ) ) ;
#271 = ORGANIZATION ( 'UNSPECIFIED', 'UNSPECIFIED', '' ) ;
#272 = EDGE_CURVE ( 'NONE', #247, #93, #171, .T. ) ;
#273 = DATE_AND_TIME ( #39, #256 ) ;
#274 = ORIENTED_EDGE ( 'NONE', *, *, #110, .F. ) ;
#275 = CARTESIAN_POINT ( 'NONE',  ( 1.224646799147353207E-16, -1.000000000000000000, 0.7187529790252279449 ) ) ;
#276 = CARTESIAN_POINT ( 'NONE',  ( 0.0000000000000000000, 7.498798913309281197E-33, -6.123233995736763571E-17 ) ) ;
#277 = AXIS2_PLACEMENT_3D ( 'NONE', #47, #77, #201 ) ;
#278 = EDGE_LOOP ( 'NONE', ( #36, #227, #177 ) ) ;
#279 = DIRECTION ( 'NONE',  ( -0.0000000000000000000, 1.224646799147352714E-16, -1.000000000000000000 ) ) ;
#280 = COORDINATED_UNIVERSAL_TIME_OFFSET ( 5, 0, .BEHIND. ) ;
#281 = CARTESIAN_POINT ( 'NONE',  ( 0.0000000000000000000, -8.802185351408698998E-17, 0.7187529790252280559 ) ) ;
#282 = CARTESIAN_POINT ( 'NONE',  ( 1.194030629168669815E-16, -0.9500000000000003997, 0.7687529790252277673 ) ) ;
#283 = VERTEX_POINT ( 'NONE', #209 ) ;
#284 = PLANE ( 'NONE',  #64 ) ;
#285 = EDGE_CURVE ( 'NONE', #19, #247, #42, .T. ) ;
#286 = DIRECTION ( 'NONE',  ( 8.659560562354952580E-17, 0.7071067811865489050, 0.7071067811865462405 ) ) ;
#287 = FACE_OUTER_BOUND ( 'NONE', #244, .T. ) ;
#288 = EDGE_LOOP ( 'NONE', ( #153, #143, #231, #113 ) ) ;
#289 = VERTEX_POINT ( 'NONE', #282 ) ;
#290 = DIRECTION ( 'NONE',  ( 0.0000000000000000000, 1.000000000000000000, 1.049058705839868669E-16 ) ) ;
#291 = LOCAL_TIME ( 9, 58, 3.000000000000000000, #51 ) ;
#292 = AXIS2_PLACEMENT_3D ( 'NONE', #206, #279, #141 ) ;
#293 = APPROVAL_STATUS ( 'not_yet_approved' ) ;
#294 = FACE_OUTER_BOUND ( 'NONE', #278, .T. ) ;
#295 = ADVANCED_FACE ( 'NONE', ( #135 ), #284, .T. ) ;
#296 = DATE_TIME_ROLE ( 'creation_date' ) ;
#297 = CALENDAR_DATE ( 2019, 24, 10 ) ;
#298 = APPROVAL_ROLE ( '' ) ;
#299 = SECURITY_CLASSIFICATION ( '', '', #195 ) ;
#300 = EDGE_LOOP ( 'NONE', ( #214, #1 ) ) ;
#301 = AXIS2_PLACEMENT_3D ( 'NONE', #146, #145, #31 ) ;
ENDSEC;
END-ISO-10303-21;
